  0
SECTION
  2
HEADER
  9
$ACADVER
  1
AC1009
  9
$INSBASE
 10
0.0
 20
0.0
 30
0.0
  9
$EXTMIN
 10
8.097878
 20
5.756804
 30
0.0
  9
$EXTMAX
 10
37.602528
 20
29.220367
 30
0.0
  9
$LIMMIN
 10
0.0
 20
0.0
  9
$LIMMAX
 10
44.0
 20
34.0
  9
$ORTHOMODE
 70
     0
  9
$REGENMODE
 70
     1
  9
$FILLMODE
 70
     1
  9
$QTEXTMODE
 70
     0
  9
$MIRRTEXT
 70
     1
  9
$DRAGMODE
 70
     2
  9
$LTSCALE
 40
1.0
  9
$OSMODE
 70
     0
  9
$ATTMODE
 70
     1
  9
$TEXTSIZE
 40
0.375
  9
$TRACEWID
 40
0.05
  9
$TEXTSTYLE
  7
ROMAND
  9
$CLAYER
  8
DIM
  9
$CELTYPE
  6
BYLAYER
  9
$CECOLOR
 62
   256
  9
$DIMSCALE
 40
1.0
  9
$DIMASZ
 40
0.25
  9
$DIMEXO
 40
0.0625
  9
$DIMDLI
 40
0.38
  9
$DIMRND
 40
0.0
  9
$DIMDLE
 40
0.0
  9
$DIMEXE
 40
0.18
  9
$DIMTP
 40
0.0
  9
$DIMTM
 40
0.0
  9
$DIMTXT
 40
0.18
  9
$DIMCEN
 40
0.09
  9
$DIMTSZ
 40
0.0
  9
$DIMTOL
 70
     0
  9
$DIMLIM
 70
     0
  9
$DIMTIH
 70
     1
  9
$DIMTOH
 70
     1
  9
$DIMSE1
 70
     0
  9
$DIMSE2
 70
     0
  9
$DIMTAD
 70
     0
  9
$DIMZIN
 70
     0
  9
$DIMBLK
  1

  9
$DIMASO
 70
     1
  9
$DIMSHO
 70
     0
  9
$DIMPOST
  1

  9
$DIMAPOST
  1

  9
$DIMALT
 70
     0
  9
$DIMALTD
 70
     2
  9
$DIMALTF
 40
25.4
  9
$DIMLFAC
 40
1.0
  9
$DIMTOFL
 70
     0
  9
$DIMTVP
 40
0.0
  9
$DIMTIX
 70
     0
  9
$DIMSOXD
 70
     0
  9
$DIMSAH
 70
     0
  9
$DIMBLK1
  1

  9
$DIMBLK2
  1

  9
$DIMSTYLE
  2
*UNNAMED
  9
$DIMCLRD
 70
     0
  9
$DIMCLRE
 70
     0
  9
$DIMCLRT
 70
     0
  9
$DIMTFAC
 40
1.0
  9
$DIMGAP
 40
0.09
  9
$LUNITS
 70
     4
  9
$LUPREC
 70
     4
  9
$SKETCHINC
 40
0.1
  9
$FILLETRAD
 40
0.0
  9
$AUNITS
 70
     0
  9
$AUPREC
 70
     0
  9
$MENU
  1
acad
  9
$ELEVATION
 40
0.0
  9
$PELEVATION
 40
0.0
  9
$THICKNESS
 40
0.0
  9
$LIMCHECK
 70
     0
  9
$BLIPMODE
 70
     1
  9
$CHAMFERA
 40
0.0
  9
$CHAMFERB
 40
0.0
  9
$SKPOLY
 70
     0
  9
$TDCREATE
 40
2449198.467548148
  9
$TDUPDATE
 40
2450137.431961574
  9
$TDINDWG
 40
0.0127689815
  9
$TDUSRTIMER
 40
0.0127689815
  9
$USRTIMER
 70
     1
  9
$ANGBASE
 50
0.0
  9
$ANGDIR
 70
     0
  9
$PDMODE
 70
     0
  9
$PDSIZE
 40
0.0
  9
$PLINEWID
 40
0.0
  9
$COORDS
 70
     2
  9
$SPLFRAME
 70
     0
  9
$SPLINETYPE
 70
     6
  9
$SPLINESEGS
 70
     8
  9
$ATTDIA
 70
     0
  9
$ATTREQ
 70
     1
  9
$HANDLING
 70
     0
  9
$HANDSEED
  5
0
  9
$SURFTAB1
 70
     6
  9
$SURFTAB2
 70
     6
  9
$SURFTYPE
 70
     6
  9
$SURFU
 70
     6
  9
$SURFV
 70
     6
  9
$UCSNAME
  2

  9
$UCSORG
 10
0.0
 20
0.0
 30
0.0
  9
$UCSXDIR
 10
1.0
 20
0.0
 30
0.0
  9
$UCSYDIR
 10
0.0
 20
1.0
 30
0.0
  9
$PUCSNAME
  2

  9
$PUCSORG
 10
0.0
 20
0.0
 30
0.0
  9
$PUCSXDIR
 10
1.0
 20
0.0
 30
0.0
  9
$PUCSYDIR
 10
0.0
 20
1.0
 30
0.0
  9
$USERI1
 70
     0
  9
$USERI2
 70
     0
  9
$USERI3
 70
     0
  9
$USERI4
 70
     0
  9
$USERI5
 70
     0
  9
$USERR1
 40
0.0
  9
$USERR2
 40
0.0
  9
$USERR3
 40
0.0
  9
$USERR4
 40
0.0
  9
$USERR5
 40
0.0
  9
$WORLDVIEW
 70
     1
  9
$SHADEDGE
 70
     3
  9
$SHADEDIF
 70
    70
  9
$TILEMODE
 70
     1
  9
$MAXACTVP
 70
    16
  9
$PINSBASE
 10
0.0
 20
0.0
 30
0.0
  9
$PLIMCHECK
 70
     0
  9
$PEXTMIN
 10
1.000000E+20
 20
1.000000E+20
 30
1.000000E+20
  9
$PEXTMAX
 10
-1.000000E+20
 20
-1.000000E+20
 30
-1.000000E+20
  9
$PLIMMIN
 10
0.0
 20
0.0
  9
$PLIMMAX
 10
12.0
 20
9.0
  9
$UNITMODE
 70
     0
  9
$VISRETAIN
 70
     0
  9
$PLINEGEN
 70
     0
  9
$PSLTSCALE
 70
     0
  9
$TREEDEPTH
 70
  3020
  9
$DWGCODEPAGE
  3
undefined
  0
ENDSEC
  0
SECTION
  2
TABLES
  0
TABLE
  2
VPORT
 70
     2
  0
VPORT
  2
*ACTIVE
 70
     0
 10
0.0
 20
0.0
 11
1.0
 21
1.0
 12
30.047619
 22
17.0
 13
0.0
 23
0.0
 14
1.0
 24
1.0
 15
0.0
 25
0.0
 16
0.0
 26
0.0
 36
1.0
 17
0.0
 27
0.0
 37
0.0
 40
34.0
 41
1.767507
 42
50.0
 43
0.0
 44
0.0
 50
0.0
 51
0.0
 71
     0
 72
   100
 73
     1
 74
     1
 75
     0
 76
     0
 77
     0
 78
     0
  0
ENDTAB
  0
TABLE
  2
LTYPE
 70
     3
  0
LTYPE
  2
CONTINUOUS
 70
    64
  3
Solid line
 72
    65
 73
     0
 40
0.0
  0
LTYPE
  2
DASHED
 70
    64
  3
__ __ __ __ __ __ __ __ __ __ __ __ __ __ __
 72
    65
 73
     2
 40
0.75
 49
0.5
 49
-0.25
  0
LTYPE
  2
HIDDEN
 70
     0
  3
_ _ _ _ _ _ _ _ _ _ _ _ _ _ _ _ _ _ _ _ _ _ _
 72
    65
 73
     2
 40
0.375
 49
0.25
 49
-0.125
  0
ENDTAB
  0
TABLE
  2
LAYER
 70
     6
  0
LAYER
  2
0
 70
    64
 62
     7
  6
CONTINUOUS
  0
LAYER
  2
DIM
 70
    64
 62
     6
  6
CONTINUOUS
  0
LAYER
  2
PANEL
 70
    64
 62
     4
  6
CONTINUOUS
  0
LAYER
  2
WOOD
 70
    64
 62
     2
  6
CONTINUOUS
  0
LAYER
  2
CLIP
 70
    64
 62
     9
  6
CONTINUOUS
  0
LAYER
  2
FLASH
 70
    64
 62
     1
  6
CONTINUOUS
  0
ENDTAB
  0
TABLE
  2
STYLE
 70
     2
  0
STYLE
  2
STANDARD
 70
     0
 40
0.0
 41
1.0
 50
0.0
 71
     0
 42
0.2
  3
txt
  4

  0
STYLE
  2
ROMAND
 70
    64
 40
0.375
 41
1.0
 50
0.0
 71
     0
 42
0.375
  3
romand
  4

  0
ENDTAB
  0
TABLE
  2
VIEW
 70
     0
  0
ENDTAB
  0
TABLE
  2
UCS
 70
     0
  0
ENDTAB
  0
TABLE
  2
APPID
 70
     1
  0
APPID
  2
ACAD
 70
    64
  0
ENDTAB
  0
TABLE
  2
DIMSTYLE
 70
     0
  0
ENDTAB
  0
ENDSEC
  0
SECTION
  2
BLOCKS
  0
ENDSEC
  0
SECTION
  2
ENTITIES
  0
LINE
  8
DIM
 10
24.604791
 20
13.681687
 30
0.0
 11
24.804466
 21
11.942375
 31
0.0
  0
SOLID
  8
DIM
 10
24.563396
 20
13.676935
 30
0.0
 11
24.646186
 21
13.686439
 31
0.0
 12
24.576278
 22
13.930056
 32
0.0
 13
24.576278
 23
13.930056
 33
0.0
  0
LINE
  8
DIM
 10
23.367066
 20
12.868642
 30
0.0
 11
23.783526
 21
10.499821
 31
0.0
  0
SOLID
  8
DIM
 10
23.326029
 20
12.861427
 30
0.0
 11
23.408103
 21
12.875857
 31
0.0
 12
23.323778
 22
13.114866
 32
0.0
 13
23.323778
 23
13.114866
 33
0.0
  0
TEXT
  8
DIM
 10
19.526992
 20
27.002014
 30
0.0
 40
0.375
  1
INTEGRAL BATTEN FASCIA
  7
ROMAND
  0
TEXT
  8
DIM
 10
25.625551
 20
17.523219
 30
0.0
 40
0.375
  1
INTEGRAL BATTEN PANEL
  7
ROMAND
  0
LINE
  8
DIM
 10
24.514667
 20
17.710719
 30
0.0
 11
25.375551
 21
17.710719
 31
0.0
  0
LINE
  8
DIM
 10
23.928101
 20
14.709186
 30
0.0
 11
24.514667
 21
17.710719
 31
0.0
  0
SOLID
  8
DIM
 10
23.968994
 20
14.701194
 30
0.0
 11
23.887207
 21
14.717177
 31
0.0
 12
23.880152
 22
14.463827
 32
0.0
 13
23.880152
 23
14.463827
 33
0.0
  0
LINE
  8
PANEL
 10
37.104631
 20
14.382794
 30
0.0
 11
33.871422
 21
14.500573
 31
0.0
  0
LINE
  8
PANEL
 10
31.958008
 20
14.169566
 30
0.0
 11
22.871422
 21
14.500573
 31
0.0
  0
LINE
  8
CLIP
 10
32.912846
 20
14.153116
 30
0.0
 11
32.912846
 21
14.211677
 31
0.0
  0
LINE
  8
CLIP
 10
32.521951
 20
14.153116
 30
0.0
 11
32.521951
 21
14.211677
 31
0.0
  0
ARC
  8
CLIP
 10
32.717399
 20
13.682902
 30
0.0
 40
0.56374
 50
69.714502
 51
110.285498
  0
LINE
  8
CLIP
 10
32.716951
 20
12.515116
 30
0.0
 11
32.781951
 21
12.723605
 31
0.0
  0
LINE
  8
CLIP
 10
32.716951
 20
12.515116
 30
0.0
 11
32.660803
 21
12.695862
 31
0.0
  0
LINE
  8
CLIP
 10
32.521951
 20
14.153116
 30
0.0
 11
32.912846
 21
14.153116
 31
0.0
  0
LINE
  8
CLIP
 10
32.781951
 20
14.153116
 30
0.0
 11
32.781951
 21
14.096335
 31
0.0
  0
LINE
  8
CLIP
 10
32.651951
 20
14.153116
 30
0.0
 11
32.651951
 21
14.05548
 31
0.0
  0
LINE
  8
CLIP
 10
32.651951
 20
14.05548
 30
0.0
 11
32.781951
 21
14.096335
 31
0.0
  0
LINE
  8
CLIP
 10
32.651951
 20
13.99308
 30
0.0
 11
32.781951
 21
14.033935
 31
0.0
  0
LINE
  8
CLIP
 10
32.651951
 20
13.99308
 30
0.0
 11
32.625358
 21
14.015923
 31
0.0
  0
LINE
  8
CLIP
 10
32.625358
 20
14.015923
 30
0.0
 11
32.651951
 21
14.05548
 31
0.0
  0
LINE
  8
CLIP
 10
32.781951
 20
14.033935
 30
0.0
 11
32.810859
 21
14.074219
 31
0.0
  0
LINE
  8
CLIP
 10
32.810859
 20
14.074219
 30
0.0
 11
32.781951
 21
14.096335
 31
0.0
  0
LINE
  8
CLIP
 10
32.651951
 20
13.99308
 30
0.0
 11
32.651951
 21
13.92548
 31
0.0
  0
LINE
  8
CLIP
 10
32.781951
 20
14.033935
 30
0.0
 11
32.781951
 21
13.966335
 31
0.0
  0
LINE
  8
CLIP
 10
32.651951
 20
13.86308
 30
0.0
 11
32.781951
 21
13.903935
 31
0.0
  0
LINE
  8
CLIP
 10
32.651951
 20
13.92548
 30
0.0
 11
32.781951
 21
13.966335
 31
0.0
  0
LINE
  8
CLIP
 10
32.625358
 20
13.885923
 30
0.0
 11
32.651951
 21
13.92548
 31
0.0
  0
LINE
  8
CLIP
 10
32.651951
 20
13.86308
 30
0.0
 11
32.625358
 21
13.885923
 31
0.0
  0
LINE
  8
CLIP
 10
32.781951
 20
13.903935
 30
0.0
 11
32.810859
 21
13.944219
 31
0.0
  0
LINE
  8
CLIP
 10
32.810859
 20
13.944219
 30
0.0
 11
32.781951
 21
13.966335
 31
0.0
  0
LINE
  8
CLIP
 10
32.651951
 20
13.73308
 30
0.0
 11
32.781951
 21
13.773935
 31
0.0
  0
LINE
  8
CLIP
 10
32.651951
 20
13.79548
 30
0.0
 11
32.781951
 21
13.836335
 31
0.0
  0
LINE
  8
CLIP
 10
32.625358
 20
13.755923
 30
0.0
 11
32.651951
 21
13.79548
 31
0.0
  0
LINE
  8
CLIP
 10
32.651951
 20
13.73308
 30
0.0
 11
32.625358
 21
13.755923
 31
0.0
  0
LINE
  8
CLIP
 10
32.781951
 20
13.773935
 30
0.0
 11
32.810859
 21
13.814219
 31
0.0
  0
LINE
  8
CLIP
 10
32.810859
 20
13.814219
 30
0.0
 11
32.781951
 21
13.836335
 31
0.0
  0
LINE
  8
CLIP
 10
32.651951
 20
13.60308
 30
0.0
 11
32.781951
 21
13.643935
 31
0.0
  0
LINE
  8
CLIP
 10
32.651951
 20
13.66548
 30
0.0
 11
32.781951
 21
13.706335
 31
0.0
  0
LINE
  8
CLIP
 10
32.625358
 20
13.625923
 30
0.0
 11
32.651951
 21
13.66548
 31
0.0
  0
LINE
  8
CLIP
 10
32.651951
 20
13.60308
 30
0.0
 11
32.625358
 21
13.625923
 31
0.0
  0
LINE
  8
CLIP
 10
32.781951
 20
13.643935
 30
0.0
 11
32.810859
 21
13.684219
 31
0.0
  0
LINE
  8
CLIP
 10
32.810859
 20
13.684219
 30
0.0
 11
32.781951
 21
13.706335
 31
0.0
  0
LINE
  8
CLIP
 10
32.651951
 20
13.47308
 30
0.0
 11
32.781951
 21
13.513935
 31
0.0
  0
LINE
  8
CLIP
 10
32.651951
 20
13.53548
 30
0.0
 11
32.781951
 21
13.576335
 31
0.0
  0
LINE
  8
CLIP
 10
32.625358
 20
13.495923
 30
0.0
 11
32.651951
 21
13.53548
 31
0.0
  0
LINE
  8
CLIP
 10
32.651951
 20
13.47308
 30
0.0
 11
32.625358
 21
13.495923
 31
0.0
  0
LINE
  8
CLIP
 10
32.781951
 20
13.513935
 30
0.0
 11
32.810859
 21
13.554219
 31
0.0
  0
LINE
  8
CLIP
 10
32.810859
 20
13.554219
 30
0.0
 11
32.781951
 21
13.576335
 31
0.0
  0
LINE
  8
CLIP
 10
32.651951
 20
13.34308
 30
0.0
 11
32.781951
 21
13.383935
 31
0.0
  0
LINE
  8
CLIP
 10
32.651951
 20
13.40548
 30
0.0
 11
32.781951
 21
13.446335
 31
0.0
  0
LINE
  8
CLIP
 10
32.625358
 20
13.365923
 30
0.0
 11
32.651951
 21
13.40548
 31
0.0
  0
LINE
  8
CLIP
 10
32.651951
 20
13.34308
 30
0.0
 11
32.625358
 21
13.365923
 31
0.0
  0
LINE
  8
CLIP
 10
32.781951
 20
13.383935
 30
0.0
 11
32.810859
 21
13.424219
 31
0.0
  0
LINE
  8
CLIP
 10
32.810859
 20
13.424219
 30
0.0
 11
32.781951
 21
13.446335
 31
0.0
  0
LINE
  8
CLIP
 10
32.651951
 20
13.21308
 30
0.0
 11
32.781951
 21
13.253935
 31
0.0
  0
LINE
  8
CLIP
 10
32.651951
 20
13.27548
 30
0.0
 11
32.781951
 21
13.316335
 31
0.0
  0
LINE
  8
CLIP
 10
32.625358
 20
13.235923
 30
0.0
 11
32.651951
 21
13.27548
 31
0.0
  0
LINE
  8
CLIP
 10
32.651951
 20
13.21308
 30
0.0
 11
32.625358
 21
13.235923
 31
0.0
  0
LINE
  8
CLIP
 10
32.781951
 20
13.253935
 30
0.0
 11
32.810859
 21
13.294219
 31
0.0
  0
LINE
  8
CLIP
 10
32.810859
 20
13.294219
 30
0.0
 11
32.781951
 21
13.316335
 31
0.0
  0
LINE
  8
CLIP
 10
32.651951
 20
13.08308
 30
0.0
 11
32.781951
 21
13.123935
 31
0.0
  0
LINE
  8
CLIP
 10
32.651951
 20
13.14548
 30
0.0
 11
32.781951
 21
13.186335
 31
0.0
  0
LINE
  8
CLIP
 10
32.625358
 20
13.105923
 30
0.0
 11
32.651951
 21
13.14548
 31
0.0
  0
LINE
  8
CLIP
 10
32.651951
 20
13.08308
 30
0.0
 11
32.625358
 21
13.105923
 31
0.0
  0
LINE
  8
CLIP
 10
32.781951
 20
13.123935
 30
0.0
 11
32.810859
 21
13.164219
 31
0.0
  0
LINE
  8
CLIP
 10
32.810859
 20
13.164219
 30
0.0
 11
32.781951
 21
13.186335
 31
0.0
  0
LINE
  8
CLIP
 10
32.651951
 20
12.95308
 30
0.0
 11
32.781951
 21
12.993935
 31
0.0
  0
LINE
  8
CLIP
 10
32.651951
 20
13.01548
 30
0.0
 11
32.781951
 21
13.056335
 31
0.0
  0
LINE
  8
CLIP
 10
32.625358
 20
12.975923
 30
0.0
 11
32.651951
 21
13.01548
 31
0.0
  0
LINE
  8
CLIP
 10
32.651951
 20
12.95308
 30
0.0
 11
32.625358
 21
12.975923
 31
0.0
  0
LINE
  8
CLIP
 10
32.781951
 20
12.993935
 30
0.0
 11
32.810859
 21
13.034219
 31
0.0
  0
LINE
  8
CLIP
 10
32.810859
 20
13.034219
 30
0.0
 11
32.781951
 21
13.056335
 31
0.0
  0
LINE
  8
CLIP
 10
32.651951
 20
12.82308
 30
0.0
 11
32.781951
 21
12.863935
 31
0.0
  0
LINE
  8
CLIP
 10
32.651951
 20
12.88548
 30
0.0
 11
32.781951
 21
12.926335
 31
0.0
  0
LINE
  8
CLIP
 10
32.625358
 20
12.845923
 30
0.0
 11
32.651951
 21
12.88548
 31
0.0
  0
LINE
  8
CLIP
 10
32.651951
 20
12.82308
 30
0.0
 11
32.625358
 21
12.845923
 31
0.0
  0
LINE
  8
CLIP
 10
32.781951
 20
12.863935
 30
0.0
 11
32.810859
 21
12.904219
 31
0.0
  0
LINE
  8
CLIP
 10
32.810859
 20
12.904219
 30
0.0
 11
32.781951
 21
12.926335
 31
0.0
  0
LINE
  8
CLIP
 10
32.660803
 20
12.695862
 30
0.0
 11
32.781951
 21
12.733935
 31
0.0
  0
LINE
  8
CLIP
 10
32.651951
 20
12.75548
 30
0.0
 11
32.781951
 21
12.796335
 31
0.0
  0
LINE
  8
CLIP
 10
32.625358
 20
12.715923
 30
0.0
 11
32.651951
 21
12.75548
 31
0.0
  0
LINE
  8
CLIP
 10
32.781951
 20
12.733935
 30
0.0
 11
32.810859
 21
12.774219
 31
0.0
  0
LINE
  8
CLIP
 10
32.810859
 20
12.774219
 30
0.0
 11
32.781951
 21
12.796335
 31
0.0
  0
LINE
  8
CLIP
 10
32.651951
 20
13.86308
 30
0.0
 11
32.651951
 21
13.79548
 31
0.0
  0
LINE
  8
CLIP
 10
32.781951
 20
13.903935
 30
0.0
 11
32.781951
 21
13.836335
 31
0.0
  0
LINE
  8
CLIP
 10
32.781951
 20
13.773935
 30
0.0
 11
32.781951
 21
13.706335
 31
0.0
  0
LINE
  8
CLIP
 10
32.651951
 20
13.73308
 30
0.0
 11
32.651951
 21
13.66548
 31
0.0
  0
LINE
  8
CLIP
 10
32.651951
 20
13.60308
 30
0.0
 11
32.651951
 21
13.53548
 31
0.0
  0
LINE
  8
CLIP
 10
32.781951
 20
13.643935
 30
0.0
 11
32.781951
 21
13.576335
 31
0.0
  0
LINE
  8
CLIP
 10
32.651951
 20
13.47308
 30
0.0
 11
32.651951
 21
13.40548
 31
0.0
  0
LINE
  8
CLIP
 10
32.781951
 20
13.513935
 30
0.0
 11
32.781951
 21
13.446335
 31
0.0
  0
LINE
  8
CLIP
 10
32.651951
 20
13.34308
 30
0.0
 11
32.651951
 21
13.27548
 31
0.0
  0
LINE
  8
CLIP
 10
32.781951
 20
13.383935
 30
0.0
 11
32.781951
 21
13.316335
 31
0.0
  0
LINE
  8
CLIP
 10
32.651951
 20
13.21308
 30
0.0
 11
32.651951
 21
13.14548
 31
0.0
  0
LINE
  8
CLIP
 10
32.781951
 20
13.253935
 30
0.0
 11
32.781951
 21
13.186335
 31
0.0
  0
LINE
  8
CLIP
 10
32.651951
 20
13.08308
 30
0.0
 11
32.651951
 21
13.01548
 31
0.0
  0
LINE
  8
CLIP
 10
32.781951
 20
13.123935
 30
0.0
 11
32.781951
 21
13.056335
 31
0.0
  0
LINE
  8
CLIP
 10
32.651951
 20
12.95308
 30
0.0
 11
32.651951
 21
12.88548
 31
0.0
  0
LINE
  8
CLIP
 10
32.781951
 20
12.993935
 30
0.0
 11
32.781951
 21
12.926335
 31
0.0
  0
LINE
  8
CLIP
 10
32.651951
 20
12.82308
 30
0.0
 11
32.651951
 21
12.75548
 31
0.0
  0
LINE
  8
CLIP
 10
32.781951
 20
12.863935
 30
0.0
 11
32.781951
 21
12.796335
 31
0.0
  0
LINE
  8
CLIP
 10
32.781951
 20
12.733935
 30
0.0
 11
32.781951
 21
12.723605
 31
0.0
  0
LINE
  8
CLIP
 10
32.660803
 20
12.695862
 30
0.0
 11
32.625358
 21
12.715923
 31
0.0
  0
LINE
  8
CLIP
 10
33.060854
 20
14.153116
 30
0.0
 11
33.060854
 21
14.964316
 31
0.0
  0
ARC
  8
CLIP
 10
33.140479
 20
14.964316
 30
0.0
 40
0.079625
 50
61.817033
 51
180.0
  0
LINE
  8
CLIP
 10
33.178085
 20
15.034501
 30
0.0
 11
33.687228
 21
14.761696
 31
0.0
  0
LINE
  8
CLIP
 10
33.687228
 20
14.593658
 30
0.0
 11
33.687228
 21
14.761696
 31
0.0
  0
LINE
  8
CLIP
 10
33.20404
 20
15.020594
 30
0.0
 11
33.31381
 21
14.628284
 31
0.0
  0
LINE
  8
CLIP
 10
33.247891
 20
14.590225
 30
0.0
 11
33.31381
 21
14.628284
 31
0.0
  0
LINE
  8
CLIP
 10
32.113999
 20
14.153116
 30
0.0
 11
33.060854
 21
14.153116
 31
0.0
  0
LINE
  8
PANEL
 10
33.148571
 20
14.257747
 30
0.0
 11
33.161244
 21
14.983812
 31
0.0
  0
ARC
  8
PANEL
 10
33.181196
 20
14.257178
 30
0.0
 40
0.03263
 50
179.0
 51
270.0
  0
LINE
  8
PANEL
 10
33.347819
 20
14.224548
 30
0.0
 11
33.181196
 21
14.224548
 31
0.0
  0
ARC
  8
PANEL
 10
33.347819
 20
14.175018
 30
0.0
 40
0.04953
 50
35.125418
 51
90.0
  0
ARC
  8
PANEL
 10
33.45599
 20
14.251113
 30
0.0
 40
0.082726
 50
215.125418
 51
324.874582
  0
ARC
  8
PANEL
 10
33.564161
 20
14.175018
 30
0.0
 40
0.04953
 50
90.0
 51
144.874582
  0
LINE
  8
PANEL
 10
34.249975
 20
14.224548
 30
0.0
 11
33.564161
 21
14.224548
 31
0.0
  0
ARC
  8
PANEL
 10
34.249986
 20
14.281091
 30
0.0
 40
0.05655
 50
270.0
 51
83.0
  0
LINE
  8
PANEL
 10
34.259804
 20
14.336072
 30
0.0
 11
33.866748
 21
14.391312
 31
0.0
  0
ARC
  8
PANEL
 10
33.874618
 20
14.447312
 30
0.0
 40
0.05655
 50
180.081321
 51
262.0
  0
ARC
  8
PANEL
 10
33.871498
 20
14.447143
 30
0.0
 40
0.05343
 50
90.081321
 51
180.081321
  0
LINE
  8
PANEL
 10
33.850248
 20
14.282398
 30
0.0
 11
34.159437
 21
14.282398
 31
0.0
  0
ARC
  8
PANEL
 10
33.850248
 20
14.347268
 30
0.0
 40
0.06487
 50
185.0
 51
270.0
  0
LINE
  8
PANEL
 10
33.66649
 20
15.703335
 30
0.0
 11
33.785625
 21
14.341614
 31
0.0
  0
ARC
  8
PANEL
 10
33.56949
 20
15.694849
 30
0.0
 40
0.09737
 50
5.0
 51
91.0
  0
LINE
  8
PANEL
 10
32.219504
 20
15.76867
 30
0.0
 11
33.567791
 21
15.792204
 31
0.0
  0
ARC
  8
PANEL
 10
32.221204
 20
15.671315
 30
0.0
 40
0.09737
 50
91.0
 51
176.0
  0
LINE
  8
PANEL
 10
32.022803
 20
14.229911
 30
0.0
 11
32.124071
 21
15.678107
 31
0.0
  0
ARC
  8
PANEL
 10
31.958091
 20
14.234436
 30
0.0
 40
0.06487
 50
269.926498
 51
356.0
  0
ARC
  8
PANEL
 10
20.958091
 20
14.234436
 30
0.0
 40
0.06487
 50
269.926498
 51
356.0
  0
LINE
  8
PANEL
 10
21.022803
 20
14.229911
 30
0.0
 11
21.124071
 21
15.678107
 31
0.0
  0
ARC
  8
PANEL
 10
21.221204
 20
15.671315
 30
0.0
 40
0.09737
 50
91.0
 51
176.0
  0
LINE
  8
PANEL
 10
21.219504
 20
15.76867
 30
0.0
 11
22.567791
 21
15.792204
 31
0.0
  0
ARC
  8
PANEL
 10
22.56949
 20
15.694849
 30
0.0
 40
0.09737
 50
5.0
 51
91.0
  0
LINE
  8
PANEL
 10
22.66649
 20
15.703335
 30
0.0
 11
22.785625
 21
14.341614
 31
0.0
  0
ARC
  8
PANEL
 10
22.850248
 20
14.347268
 30
0.0
 40
0.06487
 50
185.0
 51
270.0
  0
LINE
  8
PANEL
 10
22.850248
 20
14.282398
 30
0.0
 11
23.159437
 21
14.282398
 31
0.0
  0
ARC
  8
PANEL
 10
22.871498
 20
14.447143
 30
0.0
 40
0.05343
 50
90.081321
 51
180.081321
  0
ARC
  8
PANEL
 10
22.874618
 20
14.447312
 30
0.0
 40
0.05655
 50
180.081321
 51
262.0
  0
LINE
  8
PANEL
 10
23.259804
 20
14.336072
 30
0.0
 11
22.866748
 21
14.391312
 31
0.0
  0
ARC
  8
PANEL
 10
23.249986
 20
14.281091
 30
0.0
 40
0.05655
 50
270.0
 51
83.0
  0
LINE
  8
PANEL
 10
23.249975
 20
14.224548
 30
0.0
 11
22.564161
 21
14.224548
 31
0.0
  0
ARC
  8
PANEL
 10
22.564161
 20
14.175018
 30
0.0
 40
0.04953
 50
90.0
 51
144.874582
  0
ARC
  8
PANEL
 10
22.45599
 20
14.251113
 30
0.0
 40
0.082726
 50
215.125418
 51
324.874582
  0
ARC
  8
PANEL
 10
22.347819
 20
14.175018
 30
0.0
 40
0.04953
 50
35.125418
 51
90.0
  0
LINE
  8
PANEL
 10
22.347819
 20
14.224548
 30
0.0
 11
22.181196
 21
14.224548
 31
0.0
  0
ARC
  8
PANEL
 10
22.181196
 20
14.257178
 30
0.0
 40
0.03263
 50
179.0
 51
270.0
  0
LINE
  8
PANEL
 10
22.148571
 20
14.257747
 30
0.0
 11
22.161244
 21
14.983812
 31
0.0
  0
LINE
  8
CLIP
 10
21.113999
 20
14.153116
 30
0.0
 11
22.060854
 21
14.153116
 31
0.0
  0
LINE
  8
CLIP
 10
22.247891
 20
14.590225
 30
0.0
 11
22.31381
 21
14.628284
 31
0.0
  0
LINE
  8
CLIP
 10
22.20404
 20
15.020594
 30
0.0
 11
22.31381
 21
14.628284
 31
0.0
  0
LINE
  8
CLIP
 10
22.687228
 20
14.593658
 30
0.0
 11
22.687228
 21
14.761696
 31
0.0
  0
LINE
  8
CLIP
 10
22.178085
 20
15.034501
 30
0.0
 11
22.687228
 21
14.761696
 31
0.0
  0
ARC
  8
CLIP
 10
22.140479
 20
14.964316
 30
0.0
 40
0.079625
 50
61.817033
 51
180.0
  0
LINE
  8
CLIP
 10
22.060854
 20
14.153116
 30
0.0
 11
22.060854
 21
14.964316
 31
0.0
  0
LINE
  8
CLIP
 10
21.660803
 20
12.695862
 30
0.0
 11
21.625358
 21
12.715923
 31
0.0
  0
LINE
  8
CLIP
 10
21.781951
 20
12.733935
 30
0.0
 11
21.781951
 21
12.723605
 31
0.0
  0
LINE
  8
CLIP
 10
21.781951
 20
12.863935
 30
0.0
 11
21.781951
 21
12.796335
 31
0.0
  0
LINE
  8
CLIP
 10
21.651951
 20
12.82308
 30
0.0
 11
21.651951
 21
12.75548
 31
0.0
  0
LINE
  8
CLIP
 10
21.781951
 20
12.993935
 30
0.0
 11
21.781951
 21
12.926335
 31
0.0
  0
LINE
  8
CLIP
 10
21.651951
 20
12.95308
 30
0.0
 11
21.651951
 21
12.88548
 31
0.0
  0
LINE
  8
CLIP
 10
21.781951
 20
13.123935
 30
0.0
 11
21.781951
 21
13.056335
 31
0.0
  0
LINE
  8
CLIP
 10
21.651951
 20
13.08308
 30
0.0
 11
21.651951
 21
13.01548
 31
0.0
  0
LINE
  8
CLIP
 10
21.781951
 20
13.253935
 30
0.0
 11
21.781951
 21
13.186335
 31
0.0
  0
LINE
  8
CLIP
 10
21.651951
 20
13.21308
 30
0.0
 11
21.651951
 21
13.14548
 31
0.0
  0
LINE
  8
CLIP
 10
21.781951
 20
13.383935
 30
0.0
 11
21.781951
 21
13.316335
 31
0.0
  0
LINE
  8
CLIP
 10
21.651951
 20
13.34308
 30
0.0
 11
21.651951
 21
13.27548
 31
0.0
  0
LINE
  8
CLIP
 10
21.781951
 20
13.513935
 30
0.0
 11
21.781951
 21
13.446335
 31
0.0
  0
LINE
  8
CLIP
 10
21.651951
 20
13.47308
 30
0.0
 11
21.651951
 21
13.40548
 31
0.0
  0
LINE
  8
CLIP
 10
21.781951
 20
13.643935
 30
0.0
 11
21.781951
 21
13.576335
 31
0.0
  0
LINE
  8
CLIP
 10
21.651951
 20
13.60308
 30
0.0
 11
21.651951
 21
13.53548
 31
0.0
  0
LINE
  8
CLIP
 10
21.651951
 20
13.73308
 30
0.0
 11
21.651951
 21
13.66548
 31
0.0
  0
LINE
  8
CLIP
 10
21.781951
 20
13.773935
 30
0.0
 11
21.781951
 21
13.706335
 31
0.0
  0
LINE
  8
CLIP
 10
21.781951
 20
13.903935
 30
0.0
 11
21.781951
 21
13.836335
 31
0.0
  0
LINE
  8
CLIP
 10
21.651951
 20
13.86308
 30
0.0
 11
21.651951
 21
13.79548
 31
0.0
  0
LINE
  8
CLIP
 10
21.810859
 20
12.774219
 30
0.0
 11
21.781951
 21
12.796335
 31
0.0
  0
LINE
  8
CLIP
 10
21.781951
 20
12.733935
 30
0.0
 11
21.810859
 21
12.774219
 31
0.0
  0
LINE
  8
CLIP
 10
21.625358
 20
12.715923
 30
0.0
 11
21.651951
 21
12.75548
 31
0.0
  0
LINE
  8
CLIP
 10
21.651951
 20
12.75548
 30
0.0
 11
21.781951
 21
12.796335
 31
0.0
  0
LINE
  8
CLIP
 10
21.660803
 20
12.695862
 30
0.0
 11
21.781951
 21
12.733935
 31
0.0
  0
LINE
  8
CLIP
 10
21.810859
 20
12.904219
 30
0.0
 11
21.781951
 21
12.926335
 31
0.0
  0
LINE
  8
CLIP
 10
21.781951
 20
12.863935
 30
0.0
 11
21.810859
 21
12.904219
 31
0.0
  0
LINE
  8
CLIP
 10
21.651951
 20
12.82308
 30
0.0
 11
21.625358
 21
12.845923
 31
0.0
  0
LINE
  8
CLIP
 10
21.625358
 20
12.845923
 30
0.0
 11
21.651951
 21
12.88548
 31
0.0
  0
LINE
  8
CLIP
 10
21.651951
 20
12.88548
 30
0.0
 11
21.781951
 21
12.926335
 31
0.0
  0
LINE
  8
CLIP
 10
21.651951
 20
12.82308
 30
0.0
 11
21.781951
 21
12.863935
 31
0.0
  0
LINE
  8
CLIP
 10
21.810859
 20
13.034219
 30
0.0
 11
21.781951
 21
13.056335
 31
0.0
  0
LINE
  8
CLIP
 10
21.781951
 20
12.993935
 30
0.0
 11
21.810859
 21
13.034219
 31
0.0
  0
LINE
  8
CLIP
 10
21.651951
 20
12.95308
 30
0.0
 11
21.625358
 21
12.975923
 31
0.0
  0
LINE
  8
CLIP
 10
21.625358
 20
12.975923
 30
0.0
 11
21.651951
 21
13.01548
 31
0.0
  0
LINE
  8
CLIP
 10
21.651951
 20
13.01548
 30
0.0
 11
21.781951
 21
13.056335
 31
0.0
  0
LINE
  8
CLIP
 10
21.651951
 20
12.95308
 30
0.0
 11
21.781951
 21
12.993935
 31
0.0
  0
LINE
  8
CLIP
 10
21.810859
 20
13.164219
 30
0.0
 11
21.781951
 21
13.186335
 31
0.0
  0
LINE
  8
CLIP
 10
21.781951
 20
13.123935
 30
0.0
 11
21.810859
 21
13.164219
 31
0.0
  0
LINE
  8
CLIP
 10
21.651951
 20
13.08308
 30
0.0
 11
21.625358
 21
13.105923
 31
0.0
  0
LINE
  8
CLIP
 10
21.625358
 20
13.105923
 30
0.0
 11
21.651951
 21
13.14548
 31
0.0
  0
LINE
  8
CLIP
 10
21.651951
 20
13.14548
 30
0.0
 11
21.781951
 21
13.186335
 31
0.0
  0
LINE
  8
CLIP
 10
21.651951
 20
13.08308
 30
0.0
 11
21.781951
 21
13.123935
 31
0.0
  0
LINE
  8
CLIP
 10
21.810859
 20
13.294219
 30
0.0
 11
21.781951
 21
13.316335
 31
0.0
  0
LINE
  8
CLIP
 10
21.781951
 20
13.253935
 30
0.0
 11
21.810859
 21
13.294219
 31
0.0
  0
LINE
  8
CLIP
 10
21.651951
 20
13.21308
 30
0.0
 11
21.625358
 21
13.235923
 31
0.0
  0
LINE
  8
CLIP
 10
21.625358
 20
13.235923
 30
0.0
 11
21.651951
 21
13.27548
 31
0.0
  0
LINE
  8
CLIP
 10
21.651951
 20
13.27548
 30
0.0
 11
21.781951
 21
13.316335
 31
0.0
  0
LINE
  8
CLIP
 10
21.651951
 20
13.21308
 30
0.0
 11
21.781951
 21
13.253935
 31
0.0
  0
LINE
  8
CLIP
 10
21.810859
 20
13.424219
 30
0.0
 11
21.781951
 21
13.446335
 31
0.0
  0
LINE
  8
CLIP
 10
21.781951
 20
13.383935
 30
0.0
 11
21.810859
 21
13.424219
 31
0.0
  0
LINE
  8
CLIP
 10
21.651951
 20
13.34308
 30
0.0
 11
21.625358
 21
13.365923
 31
0.0
  0
LINE
  8
CLIP
 10
21.625358
 20
13.365923
 30
0.0
 11
21.651951
 21
13.40548
 31
0.0
  0
LINE
  8
CLIP
 10
21.651951
 20
13.40548
 30
0.0
 11
21.781951
 21
13.446335
 31
0.0
  0
LINE
  8
CLIP
 10
21.651951
 20
13.34308
 30
0.0
 11
21.781951
 21
13.383935
 31
0.0
  0
LINE
  8
CLIP
 10
21.810859
 20
13.554219
 30
0.0
 11
21.781951
 21
13.576335
 31
0.0
  0
LINE
  8
CLIP
 10
21.781951
 20
13.513935
 30
0.0
 11
21.810859
 21
13.554219
 31
0.0
  0
LINE
  8
CLIP
 10
21.651951
 20
13.47308
 30
0.0
 11
21.625358
 21
13.495923
 31
0.0
  0
LINE
  8
CLIP
 10
21.625358
 20
13.495923
 30
0.0
 11
21.651951
 21
13.53548
 31
0.0
  0
LINE
  8
CLIP
 10
21.651951
 20
13.53548
 30
0.0
 11
21.781951
 21
13.576335
 31
0.0
  0
LINE
  8
CLIP
 10
21.651951
 20
13.47308
 30
0.0
 11
21.781951
 21
13.513935
 31
0.0
  0
LINE
  8
CLIP
 10
21.810859
 20
13.684219
 30
0.0
 11
21.781951
 21
13.706335
 31
0.0
  0
LINE
  8
CLIP
 10
21.781951
 20
13.643935
 30
0.0
 11
21.810859
 21
13.684219
 31
0.0
  0
LINE
  8
CLIP
 10
21.651951
 20
13.60308
 30
0.0
 11
21.625358
 21
13.625923
 31
0.0
  0
LINE
  8
CLIP
 10
21.625358
 20
13.625923
 30
0.0
 11
21.651951
 21
13.66548
 31
0.0
  0
LINE
  8
CLIP
 10
21.651951
 20
13.66548
 30
0.0
 11
21.781951
 21
13.706335
 31
0.0
  0
LINE
  8
CLIP
 10
21.651951
 20
13.60308
 30
0.0
 11
21.781951
 21
13.643935
 31
0.0
  0
LINE
  8
CLIP
 10
21.810859
 20
13.814219
 30
0.0
 11
21.781951
 21
13.836335
 31
0.0
  0
LINE
  8
CLIP
 10
21.781951
 20
13.773935
 30
0.0
 11
21.810859
 21
13.814219
 31
0.0
  0
LINE
  8
CLIP
 10
21.651951
 20
13.73308
 30
0.0
 11
21.625358
 21
13.755923
 31
0.0
  0
LINE
  8
CLIP
 10
21.625358
 20
13.755923
 30
0.0
 11
21.651951
 21
13.79548
 31
0.0
  0
LINE
  8
CLIP
 10
21.651951
 20
13.79548
 30
0.0
 11
21.781951
 21
13.836335
 31
0.0
  0
LINE
  8
CLIP
 10
21.651951
 20
13.73308
 30
0.0
 11
21.781951
 21
13.773935
 31
0.0
  0
LINE
  8
CLIP
 10
21.810859
 20
13.944219
 30
0.0
 11
21.781951
 21
13.966335
 31
0.0
  0
LINE
  8
CLIP
 10
21.781951
 20
13.903935
 30
0.0
 11
21.810859
 21
13.944219
 31
0.0
  0
LINE
  8
CLIP
 10
21.651951
 20
13.86308
 30
0.0
 11
21.625358
 21
13.885923
 31
0.0
  0
LINE
  8
CLIP
 10
21.625358
 20
13.885923
 30
0.0
 11
21.651951
 21
13.92548
 31
0.0
  0
LINE
  8
CLIP
 10
21.651951
 20
13.92548
 30
0.0
 11
21.781951
 21
13.966335
 31
0.0
  0
LINE
  8
CLIP
 10
21.651951
 20
13.86308
 30
0.0
 11
21.781951
 21
13.903935
 31
0.0
  0
LINE
  8
CLIP
 10
21.781951
 20
14.033935
 30
0.0
 11
21.781951
 21
13.966335
 31
0.0
  0
LINE
  8
CLIP
 10
21.651951
 20
13.99308
 30
0.0
 11
21.651951
 21
13.92548
 31
0.0
  0
LINE
  8
CLIP
 10
21.810859
 20
14.074219
 30
0.0
 11
21.781951
 21
14.096335
 31
0.0
  0
LINE
  8
CLIP
 10
21.781951
 20
14.033935
 30
0.0
 11
21.810859
 21
14.074219
 31
0.0
  0
LINE
  8
CLIP
 10
21.625358
 20
14.015923
 30
0.0
 11
21.651951
 21
14.05548
 31
0.0
  0
LINE
  8
CLIP
 10
21.651951
 20
13.99308
 30
0.0
 11
21.625358
 21
14.015923
 31
0.0
  0
LINE
  8
CLIP
 10
21.651951
 20
13.99308
 30
0.0
 11
21.781951
 21
14.033935
 31
0.0
  0
LINE
  8
CLIP
 10
21.651951
 20
14.05548
 30
0.0
 11
21.781951
 21
14.096335
 31
0.0
  0
LINE
  8
CLIP
 10
21.651951
 20
14.153116
 30
0.0
 11
21.651951
 21
14.05548
 31
0.0
  0
LINE
  8
CLIP
 10
21.781951
 20
14.153116
 30
0.0
 11
21.781951
 21
14.096335
 31
0.0
  0
LINE
  8
CLIP
 10
21.521951
 20
14.153116
 30
0.0
 11
21.912846
 21
14.153116
 31
0.0
  0
LINE
  8
CLIP
 10
21.716951
 20
12.515116
 30
0.0
 11
21.660803
 21
12.695862
 31
0.0
  0
LINE
  8
CLIP
 10
21.716951
 20
12.515116
 30
0.0
 11
21.781951
 21
12.723605
 31
0.0
  0
ARC
  8
CLIP
 10
21.717399
 20
13.682902
 30
0.0
 40
0.56374
 50
69.714502
 51
110.285498
  0
LINE
  8
CLIP
 10
21.521951
 20
14.153116
 30
0.0
 11
21.521951
 21
14.211677
 31
0.0
  0
LINE
  8
CLIP
 10
21.912846
 20
14.153116
 30
0.0
 11
21.912846
 21
14.211677
 31
0.0
  0
LINE
  8
CLIP
 10
13.608889
 20
21.222932
 30
0.0
 11
13.538585
 21
21.222932
 31
0.0
  0
LINE
  8
CLIP
 10
13.701601
 20
21.358132
 30
0.0
 11
13.631297
 21
21.358132
 31
0.0
  0
LINE
  8
CLIP
 10
12.622894
 20
21.348927
 30
0.0
 11
12.643758
 21
21.385789
 31
0.0
  0
LINE
  8
CLIP
 10
12.662489
 20
21.222932
 30
0.0
 11
12.651746
 21
21.222932
 31
0.0
  0
LINE
  8
CLIP
 10
12.797689
 20
21.222932
 30
0.0
 11
12.727385
 21
21.222932
 31
0.0
  0
LINE
  8
CLIP
 10
12.755201
 20
21.358132
 30
0.0
 11
12.684897
 21
21.358132
 31
0.0
  0
LINE
  8
CLIP
 10
12.932889
 20
21.222932
 30
0.0
 11
12.862585
 21
21.222932
 31
0.0
  0
LINE
  8
CLIP
 10
12.890401
 20
21.358132
 30
0.0
 11
12.820097
 21
21.358132
 31
0.0
  0
LINE
  8
CLIP
 10
13.068089
 20
21.222932
 30
0.0
 11
12.997785
 21
21.222932
 31
0.0
  0
LINE
  8
CLIP
 10
13.025601
 20
21.358132
 30
0.0
 11
12.955297
 21
21.358132
 31
0.0
  0
LINE
  8
CLIP
 10
13.203289
 20
21.222932
 30
0.0
 11
13.132985
 21
21.222932
 31
0.0
  0
LINE
  8
CLIP
 10
13.160801
 20
21.358132
 30
0.0
 11
13.090497
 21
21.358132
 31
0.0
  0
LINE
  8
CLIP
 10
13.338489
 20
21.222932
 30
0.0
 11
13.268185
 21
21.222932
 31
0.0
  0
LINE
  8
CLIP
 10
13.296001
 20
21.358132
 30
0.0
 11
13.225697
 21
21.358132
 31
0.0
  0
LINE
  8
CLIP
 10
13.473689
 20
21.222932
 30
0.0
 11
13.403385
 21
21.222932
 31
0.0
  0
LINE
  8
CLIP
 10
13.431201
 20
21.358132
 30
0.0
 11
13.360897
 21
21.358132
 31
0.0
  0
LINE
  8
CLIP
 10
13.566401
 20
21.358132
 30
0.0
 11
13.496097
 21
21.358132
 31
0.0
  0
LINE
  8
CLIP
 10
13.836801
 20
21.358132
 30
0.0
 11
13.766497
 21
21.358132
 31
0.0
  0
LINE
  8
CLIP
 10
13.744089
 20
21.222932
 30
0.0
 11
13.673785
 21
21.222932
 31
0.0
  0
LINE
  8
CLIP
 10
13.879289
 20
21.222932
 30
0.0
 11
13.808985
 21
21.222932
 31
0.0
  0
LINE
  8
CLIP
 10
12.704385
 20
21.192868
 30
0.0
 11
12.727385
 21
21.222932
 31
0.0
  0
LINE
  8
CLIP
 10
12.662489
 20
21.222932
 30
0.0
 11
12.704385
 21
21.192868
 31
0.0
  0
LINE
  8
CLIP
 10
12.643758
 20
21.385789
 30
0.0
 11
12.684897
 21
21.358132
 31
0.0
  0
LINE
  8
CLIP
 10
12.684897
 20
21.358132
 30
0.0
 11
12.727385
 21
21.222932
 31
0.0
  0
LINE
  8
CLIP
 10
12.622894
 20
21.348927
 30
0.0
 11
12.662489
 21
21.222932
 31
0.0
  0
LINE
  8
CLIP
 10
12.839585
 20
21.192868
 30
0.0
 11
12.862585
 21
21.222932
 31
0.0
  0
LINE
  8
CLIP
 10
12.797689
 20
21.222932
 30
0.0
 11
12.839585
 21
21.192868
 31
0.0
  0
LINE
  8
CLIP
 10
12.755201
 20
21.358132
 30
0.0
 11
12.778958
 21
21.385789
 31
0.0
  0
LINE
  8
CLIP
 10
12.778958
 20
21.385789
 30
0.0
 11
12.820097
 21
21.358132
 31
0.0
  0
LINE
  8
CLIP
 10
12.820097
 20
21.358132
 30
0.0
 11
12.862585
 21
21.222932
 31
0.0
  0
LINE
  8
CLIP
 10
12.755201
 20
21.358132
 30
0.0
 11
12.797689
 21
21.222932
 31
0.0
  0
LINE
  8
CLIP
 10
12.974785
 20
21.192868
 30
0.0
 11
12.997785
 21
21.222932
 31
0.0
  0
LINE
  8
CLIP
 10
12.932889
 20
21.222932
 30
0.0
 11
12.974785
 21
21.192868
 31
0.0
  0
LINE
  8
CLIP
 10
12.890401
 20
21.358132
 30
0.0
 11
12.914158
 21
21.385789
 31
0.0
  0
LINE
  8
CLIP
 10
12.914158
 20
21.385789
 30
0.0
 11
12.955297
 21
21.358132
 31
0.0
  0
LINE
  8
CLIP
 10
12.955297
 20
21.358132
 30
0.0
 11
12.997785
 21
21.222932
 31
0.0
  0
LINE
  8
CLIP
 10
12.890401
 20
21.358132
 30
0.0
 11
12.932889
 21
21.222932
 31
0.0
  0
LINE
  8
CLIP
 10
13.109985
 20
21.192868
 30
0.0
 11
13.132985
 21
21.222932
 31
0.0
  0
LINE
  8
CLIP
 10
13.068089
 20
21.222932
 30
0.0
 11
13.109985
 21
21.192868
 31
0.0
  0
LINE
  8
CLIP
 10
13.025601
 20
21.358132
 30
0.0
 11
13.049358
 21
21.385789
 31
0.0
  0
LINE
  8
CLIP
 10
13.049358
 20
21.385789
 30
0.0
 11
13.090497
 21
21.358132
 31
0.0
  0
LINE
  8
CLIP
 10
13.090497
 20
21.358132
 30
0.0
 11
13.132985
 21
21.222932
 31
0.0
  0
LINE
  8
CLIP
 10
13.025601
 20
21.358132
 30
0.0
 11
13.068089
 21
21.222932
 31
0.0
  0
LINE
  8
CLIP
 10
13.245185
 20
21.192868
 30
0.0
 11
13.268185
 21
21.222932
 31
0.0
  0
LINE
  8
CLIP
 10
13.203289
 20
21.222932
 30
0.0
 11
13.245185
 21
21.192868
 31
0.0
  0
LINE
  8
CLIP
 10
13.160801
 20
21.358132
 30
0.0
 11
13.184558
 21
21.385789
 31
0.0
  0
LINE
  8
CLIP
 10
13.184558
 20
21.385789
 30
0.0
 11
13.225697
 21
21.358132
 31
0.0
  0
LINE
  8
CLIP
 10
13.225697
 20
21.358132
 30
0.0
 11
13.268185
 21
21.222932
 31
0.0
  0
LINE
  8
CLIP
 10
13.160801
 20
21.358132
 30
0.0
 11
13.203289
 21
21.222932
 31
0.0
  0
LINE
  8
CLIP
 10
13.380385
 20
21.192868
 30
0.0
 11
13.403385
 21
21.222932
 31
0.0
  0
LINE
  8
CLIP
 10
13.338489
 20
21.222932
 30
0.0
 11
13.380385
 21
21.192868
 31
0.0
  0
LINE
  8
CLIP
 10
13.296001
 20
21.358132
 30
0.0
 11
13.319758
 21
21.385789
 31
0.0
  0
LINE
  8
CLIP
 10
13.319758
 20
21.385789
 30
0.0
 11
13.360897
 21
21.358132
 31
0.0
  0
LINE
  8
CLIP
 10
13.360897
 20
21.358132
 30
0.0
 11
13.403385
 21
21.222932
 31
0.0
  0
LINE
  8
CLIP
 10
13.296001
 20
21.358132
 30
0.0
 11
13.338489
 21
21.222932
 31
0.0
  0
LINE
  8
CLIP
 10
13.515585
 20
21.192868
 30
0.0
 11
13.538585
 21
21.222932
 31
0.0
  0
LINE
  8
CLIP
 10
13.473689
 20
21.222932
 30
0.0
 11
13.515585
 21
21.192868
 31
0.0
  0
LINE
  8
CLIP
 10
13.431201
 20
21.358132
 30
0.0
 11
13.454958
 21
21.385789
 31
0.0
  0
LINE
  8
CLIP
 10
13.454958
 20
21.385789
 30
0.0
 11
13.496097
 21
21.358132
 31
0.0
  0
LINE
  8
CLIP
 10
13.496097
 20
21.358132
 30
0.0
 11
13.538585
 21
21.222932
 31
0.0
  0
LINE
  8
CLIP
 10
13.431201
 20
21.358132
 30
0.0
 11
13.473689
 21
21.222932
 31
0.0
  0
LINE
  8
CLIP
 10
13.650785
 20
21.192868
 30
0.0
 11
13.673785
 21
21.222932
 31
0.0
  0
LINE
  8
CLIP
 10
13.608889
 20
21.222932
 30
0.0
 11
13.650785
 21
21.192868
 31
0.0
  0
LINE
  8
CLIP
 10
13.566401
 20
21.358132
 30
0.0
 11
13.590158
 21
21.385789
 31
0.0
  0
LINE
  8
CLIP
 10
13.590158
 20
21.385789
 30
0.0
 11
13.631297
 21
21.358132
 31
0.0
  0
LINE
  8
CLIP
 10
13.631297
 20
21.358132
 30
0.0
 11
13.673785
 21
21.222932
 31
0.0
  0
LINE
  8
CLIP
 10
13.566401
 20
21.358132
 30
0.0
 11
13.608889
 21
21.222932
 31
0.0
  0
LINE
  8
CLIP
 10
13.785985
 20
21.192868
 30
0.0
 11
13.808985
 21
21.222932
 31
0.0
  0
LINE
  8
CLIP
 10
13.744089
 20
21.222932
 30
0.0
 11
13.785985
 21
21.192868
 31
0.0
  0
LINE
  8
CLIP
 10
13.701601
 20
21.358132
 30
0.0
 11
13.725358
 21
21.385789
 31
0.0
  0
LINE
  8
CLIP
 10
13.725358
 20
21.385789
 30
0.0
 11
13.766497
 21
21.358132
 31
0.0
  0
LINE
  8
CLIP
 10
13.766497
 20
21.358132
 30
0.0
 11
13.808985
 21
21.222932
 31
0.0
  0
LINE
  8
CLIP
 10
13.701601
 20
21.358132
 30
0.0
 11
13.744089
 21
21.222932
 31
0.0
  0
LINE
  8
CLIP
 10
13.921185
 20
21.192868
 30
0.0
 11
13.944185
 21
21.222932
 31
0.0
  0
LINE
  8
CLIP
 10
13.879289
 20
21.222932
 30
0.0
 11
13.921185
 21
21.192868
 31
0.0
  0
LINE
  8
CLIP
 10
13.836801
 20
21.358132
 30
0.0
 11
13.860558
 21
21.385789
 31
0.0
  0
LINE
  8
CLIP
 10
13.860558
 20
21.385789
 30
0.0
 11
13.901697
 21
21.358132
 31
0.0
  0
LINE
  8
CLIP
 10
13.901697
 20
21.358132
 30
0.0
 11
13.944185
 21
21.222932
 31
0.0
  0
LINE
  8
CLIP
 10
13.836801
 20
21.358132
 30
0.0
 11
13.879289
 21
21.222932
 31
0.0
  0
LINE
  8
CLIP
 10
14.014489
 20
21.222932
 30
0.0
 11
13.944185
 21
21.222932
 31
0.0
  0
LINE
  8
CLIP
 10
13.972001
 20
21.358132
 30
0.0
 11
13.901697
 21
21.358132
 31
0.0
  0
LINE
  8
CLIP
 10
14.056385
 20
21.192868
 30
0.0
 11
14.079385
 21
21.222932
 31
0.0
  0
LINE
  8
CLIP
 10
14.014489
 20
21.222932
 30
0.0
 11
14.056385
 21
21.192868
 31
0.0
  0
LINE
  8
CLIP
 10
13.995758
 20
21.385789
 30
0.0
 11
14.036897
 21
21.358132
 31
0.0
  0
LINE
  8
CLIP
 10
13.972001
 20
21.358132
 30
0.0
 11
13.995758
 21
21.385789
 31
0.0
  0
LINE
  8
CLIP
 10
13.972001
 20
21.358132
 30
0.0
 11
14.014489
 21
21.222932
 31
0.0
  0
LINE
  8
CLIP
 10
14.036897
 20
21.358132
 30
0.0
 11
14.079385
 21
21.222932
 31
0.0
  0
LINE
  8
CLIP
 10
14.163788
 20
21.358132
 30
0.0
 11
14.036897
 21
21.358132
 31
0.0
  0
LINE
  8
CLIP
 10
14.163788
 20
21.222932
 30
0.0
 11
14.079385
 21
21.222932
 31
0.0
  0
LINE
  8
CLIP
 10
12.434918
 20
21.290532
 30
0.0
 11
12.622894
 21
21.348927
 31
0.0
  0
LINE
  8
CLIP
 10
12.434918
 20
21.290532
 30
0.0
 11
12.651746
 21
21.222932
 31
0.0
  0
ARC
  8
CLIP
 10
13.674766
 20
21.290067
 30
0.0
 40
0.586289
 50
339.714502
 51
20.285498
  0
LINE
  8
CLIP
 10
14.164605
 20
21.493332
 30
0.0
 11
14.224691
 21
21.493332
 31
0.0
  0
LINE
  8
CLIP
 10
14.164605
 20
21.086801
 30
0.0
 11
14.224691
 21
21.086801
 31
0.0
  0
LINE
  8
CLIP
 10
13.320882
 20
21.382211
 30
0.0
 11
13.318984
 21
21.384889
 31
0.0
  0
LINE
  8
PANEL
 10
15.726605
 20
16.088778
 30
0.0
 11
14.288856
 21
16.088778
 31
0.0
  0
LINE
  8
PANEL
 10
15.726605
 20
28.037395
 30
0.0
 11
15.726605
 21
16.088778
 31
0.0
  0
TEXT
  8
DIM
 10
19.043576
 20
25.54471
 30
0.0
 40
0.375
  1
INTEGRAL PANEL CLIP
  7
ROMAND
  0
LINE
  8
CLIP
 10
14.164605
 20
20.017982
 30
0.0
 11
14.164605
 21
19.61145
 31
0.0
  0
LINE
  8
CLIP
 10
13.321699
 20
19.90686
 30
0.0
 11
13.319801
 21
19.909538
 31
0.0
  0
LINE
  8
CLIP
 10
14.164605
 20
19.61145
 30
0.0
 11
14.225508
 21
19.61145
 31
0.0
  0
LINE
  8
CLIP
 10
14.164605
 20
20.017982
 30
0.0
 11
14.225508
 21
20.017982
 31
0.0
  0
ARC
  8
CLIP
 10
13.675582
 20
19.814716
 30
0.0
 40
0.586289
 50
339.714502
 51
20.285498
  0
LINE
  8
CLIP
 10
12.435735
 20
19.815182
 30
0.0
 11
12.652563
 21
19.747582
 31
0.0
  0
LINE
  8
CLIP
 10
12.435735
 20
19.815182
 30
0.0
 11
12.623711
 21
19.873576
 31
0.0
  0
LINE
  8
CLIP
 10
14.164605
 20
19.747582
 30
0.0
 11
14.080202
 21
19.747582
 31
0.0
  0
LINE
  8
CLIP
 10
14.164605
 20
19.882782
 30
0.0
 11
14.037714
 21
19.882782
 31
0.0
  0
LINE
  8
CLIP
 10
14.037714
 20
19.882782
 30
0.0
 11
14.080202
 21
19.747582
 31
0.0
  0
LINE
  8
CLIP
 10
13.972818
 20
19.882782
 30
0.0
 11
14.015306
 21
19.747582
 31
0.0
  0
LINE
  8
CLIP
 10
13.972818
 20
19.882782
 30
0.0
 11
13.996574
 21
19.910438
 31
0.0
  0
LINE
  8
CLIP
 10
13.996574
 20
19.910438
 30
0.0
 11
14.037714
 21
19.882782
 31
0.0
  0
LINE
  8
CLIP
 10
14.015306
 20
19.747582
 30
0.0
 11
14.057202
 21
19.717517
 31
0.0
  0
LINE
  8
CLIP
 10
14.057202
 20
19.717517
 30
0.0
 11
14.080202
 21
19.747582
 31
0.0
  0
LINE
  8
CLIP
 10
13.972818
 20
19.882782
 30
0.0
 11
13.902514
 21
19.882782
 31
0.0
  0
LINE
  8
CLIP
 10
14.015306
 20
19.747582
 30
0.0
 11
13.945002
 21
19.747582
 31
0.0
  0
LINE
  8
CLIP
 10
13.837618
 20
19.882782
 30
0.0
 11
13.880106
 21
19.747582
 31
0.0
  0
LINE
  8
CLIP
 10
13.902514
 20
19.882782
 30
0.0
 11
13.945002
 21
19.747582
 31
0.0
  0
LINE
  8
CLIP
 10
13.861374
 20
19.910438
 30
0.0
 11
13.902514
 21
19.882782
 31
0.0
  0
LINE
  8
CLIP
 10
13.837618
 20
19.882782
 30
0.0
 11
13.861374
 21
19.910438
 31
0.0
  0
LINE
  8
CLIP
 10
13.880106
 20
19.747582
 30
0.0
 11
13.922002
 21
19.717517
 31
0.0
  0
LINE
  8
CLIP
 10
13.922002
 20
19.717517
 30
0.0
 11
13.945002
 21
19.747582
 31
0.0
  0
LINE
  8
CLIP
 10
13.702418
 20
19.882782
 30
0.0
 11
13.744906
 21
19.747582
 31
0.0
  0
LINE
  8
CLIP
 10
13.767314
 20
19.882782
 30
0.0
 11
13.809802
 21
19.747582
 31
0.0
  0
LINE
  8
CLIP
 10
13.726174
 20
19.910438
 30
0.0
 11
13.767314
 21
19.882782
 31
0.0
  0
LINE
  8
CLIP
 10
13.702418
 20
19.882782
 30
0.0
 11
13.726174
 21
19.910438
 31
0.0
  0
LINE
  8
CLIP
 10
13.744906
 20
19.747582
 30
0.0
 11
13.786802
 21
19.717517
 31
0.0
  0
LINE
  8
CLIP
 10
13.786802
 20
19.717517
 30
0.0
 11
13.809802
 21
19.747582
 31
0.0
  0
LINE
  8
CLIP
 10
13.567218
 20
19.882782
 30
0.0
 11
13.609706
 21
19.747582
 31
0.0
  0
LINE
  8
CLIP
 10
13.632114
 20
19.882782
 30
0.0
 11
13.674602
 21
19.747582
 31
0.0
  0
LINE
  8
CLIP
 10
13.590974
 20
19.910438
 30
0.0
 11
13.632114
 21
19.882782
 31
0.0
  0
LINE
  8
CLIP
 10
13.567218
 20
19.882782
 30
0.0
 11
13.590974
 21
19.910438
 31
0.0
  0
LINE
  8
CLIP
 10
13.609706
 20
19.747582
 30
0.0
 11
13.651602
 21
19.717517
 31
0.0
  0
LINE
  8
CLIP
 10
13.651602
 20
19.717517
 30
0.0
 11
13.674602
 21
19.747582
 31
0.0
  0
LINE
  8
CLIP
 10
13.432018
 20
19.882782
 30
0.0
 11
13.474506
 21
19.747582
 31
0.0
  0
LINE
  8
CLIP
 10
13.496914
 20
19.882782
 30
0.0
 11
13.539402
 21
19.747582
 31
0.0
  0
LINE
  8
CLIP
 10
13.455774
 20
19.910438
 30
0.0
 11
13.496914
 21
19.882782
 31
0.0
  0
LINE
  8
CLIP
 10
13.432018
 20
19.882782
 30
0.0
 11
13.455774
 21
19.910438
 31
0.0
  0
LINE
  8
CLIP
 10
13.474506
 20
19.747582
 30
0.0
 11
13.516402
 21
19.717517
 31
0.0
  0
LINE
  8
CLIP
 10
13.516402
 20
19.717517
 30
0.0
 11
13.539402
 21
19.747582
 31
0.0
  0
LINE
  8
CLIP
 10
13.296818
 20
19.882782
 30
0.0
 11
13.339306
 21
19.747582
 31
0.0
  0
LINE
  8
CLIP
 10
13.361714
 20
19.882782
 30
0.0
 11
13.404202
 21
19.747582
 31
0.0
  0
LINE
  8
CLIP
 10
13.320574
 20
19.910438
 30
0.0
 11
13.361714
 21
19.882782
 31
0.0
  0
LINE
  8
CLIP
 10
13.296818
 20
19.882782
 30
0.0
 11
13.320574
 21
19.910438
 31
0.0
  0
LINE
  8
CLIP
 10
13.339306
 20
19.747582
 30
0.0
 11
13.381202
 21
19.717517
 31
0.0
  0
LINE
  8
CLIP
 10
13.381202
 20
19.717517
 30
0.0
 11
13.404202
 21
19.747582
 31
0.0
  0
LINE
  8
CLIP
 10
13.161618
 20
19.882782
 30
0.0
 11
13.204106
 21
19.747582
 31
0.0
  0
LINE
  8
CLIP
 10
13.226514
 20
19.882782
 30
0.0
 11
13.269002
 21
19.747582
 31
0.0
  0
LINE
  8
CLIP
 10
13.185374
 20
19.910438
 30
0.0
 11
13.226514
 21
19.882782
 31
0.0
  0
LINE
  8
CLIP
 10
13.161618
 20
19.882782
 30
0.0
 11
13.185374
 21
19.910438
 31
0.0
  0
LINE
  8
CLIP
 10
13.204106
 20
19.747582
 30
0.0
 11
13.246002
 21
19.717517
 31
0.0
  0
LINE
  8
CLIP
 10
13.246002
 20
19.717517
 30
0.0
 11
13.269002
 21
19.747582
 31
0.0
  0
LINE
  8
CLIP
 10
13.026418
 20
19.882782
 30
0.0
 11
13.068906
 21
19.747582
 31
0.0
  0
LINE
  8
CLIP
 10
13.091314
 20
19.882782
 30
0.0
 11
13.133802
 21
19.747582
 31
0.0
  0
LINE
  8
CLIP
 10
13.050174
 20
19.910438
 30
0.0
 11
13.091314
 21
19.882782
 31
0.0
  0
LINE
  8
CLIP
 10
13.026418
 20
19.882782
 30
0.0
 11
13.050174
 21
19.910438
 31
0.0
  0
LINE
  8
CLIP
 10
13.068906
 20
19.747582
 30
0.0
 11
13.110802
 21
19.717517
 31
0.0
  0
LINE
  8
CLIP
 10
13.110802
 20
19.717517
 30
0.0
 11
13.133802
 21
19.747582
 31
0.0
  0
LINE
  8
CLIP
 10
12.891218
 20
19.882782
 30
0.0
 11
12.933706
 21
19.747582
 31
0.0
  0
LINE
  8
CLIP
 10
12.956114
 20
19.882782
 30
0.0
 11
12.998602
 21
19.747582
 31
0.0
  0
LINE
  8
CLIP
 10
12.914974
 20
19.910438
 30
0.0
 11
12.956114
 21
19.882782
 31
0.0
  0
LINE
  8
CLIP
 10
12.891218
 20
19.882782
 30
0.0
 11
12.914974
 21
19.910438
 31
0.0
  0
LINE
  8
CLIP
 10
12.933706
 20
19.747582
 30
0.0
 11
12.975602
 21
19.717517
 31
0.0
  0
LINE
  8
CLIP
 10
12.975602
 20
19.717517
 30
0.0
 11
12.998602
 21
19.747582
 31
0.0
  0
LINE
  8
CLIP
 10
12.756018
 20
19.882782
 30
0.0
 11
12.798506
 21
19.747582
 31
0.0
  0
LINE
  8
CLIP
 10
12.820914
 20
19.882782
 30
0.0
 11
12.863402
 21
19.747582
 31
0.0
  0
LINE
  8
CLIP
 10
12.779774
 20
19.910438
 30
0.0
 11
12.820914
 21
19.882782
 31
0.0
  0
LINE
  8
CLIP
 10
12.756018
 20
19.882782
 30
0.0
 11
12.779774
 21
19.910438
 31
0.0
  0
LINE
  8
CLIP
 10
12.798506
 20
19.747582
 30
0.0
 11
12.840402
 21
19.717517
 31
0.0
  0
LINE
  8
CLIP
 10
12.840402
 20
19.717517
 30
0.0
 11
12.863402
 21
19.747582
 31
0.0
  0
LINE
  8
CLIP
 10
12.623711
 20
19.873576
 30
0.0
 11
12.663306
 21
19.747582
 31
0.0
  0
LINE
  8
CLIP
 10
12.685714
 20
19.882782
 30
0.0
 11
12.728202
 21
19.747582
 31
0.0
  0
LINE
  8
CLIP
 10
12.644574
 20
19.910438
 30
0.0
 11
12.685714
 21
19.882782
 31
0.0
  0
LINE
  8
CLIP
 10
12.663306
 20
19.747582
 30
0.0
 11
12.705202
 21
19.717517
 31
0.0
  0
LINE
  8
CLIP
 10
12.705202
 20
19.717517
 30
0.0
 11
12.728202
 21
19.747582
 31
0.0
  0
LINE
  8
CLIP
 10
13.880106
 20
19.747582
 30
0.0
 11
13.809802
 21
19.747582
 31
0.0
  0
LINE
  8
CLIP
 10
13.744906
 20
19.747582
 30
0.0
 11
13.674602
 21
19.747582
 31
0.0
  0
LINE
  8
CLIP
 10
13.837618
 20
19.882782
 30
0.0
 11
13.767314
 21
19.882782
 31
0.0
  0
LINE
  8
CLIP
 10
13.567218
 20
19.882782
 30
0.0
 11
13.496914
 21
19.882782
 31
0.0
  0
LINE
  8
CLIP
 10
13.432018
 20
19.882782
 30
0.0
 11
13.361714
 21
19.882782
 31
0.0
  0
LINE
  8
CLIP
 10
13.474506
 20
19.747582
 30
0.0
 11
13.404202
 21
19.747582
 31
0.0
  0
LINE
  8
CLIP
 10
13.296818
 20
19.882782
 30
0.0
 11
13.226514
 21
19.882782
 31
0.0
  0
LINE
  8
CLIP
 10
13.339306
 20
19.747582
 30
0.0
 11
13.269002
 21
19.747582
 31
0.0
  0
LINE
  8
CLIP
 10
13.161618
 20
19.882782
 30
0.0
 11
13.091314
 21
19.882782
 31
0.0
  0
LINE
  8
CLIP
 10
13.204106
 20
19.747582
 30
0.0
 11
13.133802
 21
19.747582
 31
0.0
  0
LINE
  8
CLIP
 10
13.026418
 20
19.882782
 30
0.0
 11
12.956114
 21
19.882782
 31
0.0
  0
LINE
  8
CLIP
 10
13.068906
 20
19.747582
 30
0.0
 11
12.998602
 21
19.747582
 31
0.0
  0
LINE
  8
CLIP
 10
12.891218
 20
19.882782
 30
0.0
 11
12.820914
 21
19.882782
 31
0.0
  0
LINE
  8
CLIP
 10
12.933706
 20
19.747582
 30
0.0
 11
12.863402
 21
19.747582
 31
0.0
  0
LINE
  8
CLIP
 10
12.756018
 20
19.882782
 30
0.0
 11
12.685714
 21
19.882782
 31
0.0
  0
LINE
  8
CLIP
 10
12.798506
 20
19.747582
 30
0.0
 11
12.728202
 21
19.747582
 31
0.0
  0
LINE
  8
CLIP
 10
12.663306
 20
19.747582
 30
0.0
 11
12.652563
 21
19.747582
 31
0.0
  0
LINE
  8
CLIP
 10
12.623711
 20
19.873576
 30
0.0
 11
12.644574
 21
19.910438
 31
0.0
  0
LINE
  8
CLIP
 10
13.702418
 20
19.882782
 30
0.0
 11
13.632114
 21
19.882782
 31
0.0
  0
LINE
  8
CLIP
 10
13.609706
 20
19.747582
 30
0.0
 11
13.539402
 21
19.747582
 31
0.0
  0
LINE
  8
DIM
 10
18.679595
 20
27.213248
 30
0.0
 11
19.336163
 21
27.213248
 31
0.0
  0
LINE
  8
DIM
 10
15.974976
 20
26.155103
 30
0.0
 11
18.679595
 21
27.213248
 31
0.0
  0
SOLID
  8
DIM
 10
15.990157
 20
26.1163
 30
0.0
 11
15.959795
 21
26.193905
 31
0.0
 12
15.74216
 22
26.064017
 32
0.0
 13
15.74216
 23
26.064017
 33
0.0
  0
LINE
  8
DIM
 10
18.179135
 20
25.498817
 30
0.0
 11
18.753631
 21
25.498817
 31
0.0
  0
LINE
  8
DIM
 10
15.062326
 20
21.990072
 30
0.0
 11
18.179135
 21
25.498817
 31
0.0
  0
SOLID
  8
DIM
 10
15.093478
 20
21.962401
 30
0.0
 11
15.031175
 21
22.017744
 31
0.0
 12
14.896297
 22
21.803165
 32
0.0
 13
14.896297
 23
21.803165
 33
0.0
  0
TEXT
  8
DIM
 10
21.249888
 20
22.163652
 30
0.0
 40
0.375
  1
PA-601 FASCIA/RAKE WALL FLASHING
  7
ROMAND
  0
LINE
  8
DIM
 10
20.415358
 20
22.110267
 30
0.0
 11
21.060069
 21
22.110267
 31
0.0
  0
LINE
  8
DIM
 10
15.672786
 20
15.973269
 30
0.0
 11
20.415358
 21
22.110267
 31
0.0
  0
SOLID
  8
DIM
 10
15.705755
 20
15.947791
 30
0.0
 11
15.639816
 21
15.998747
 31
0.0
 12
15.519917
 22
15.775453
 32
0.0
 13
15.519917
 23
15.775453
 33
0.0
  0
LINE
  8
0
 10
15.125018
 20
29.220367
 30
0.0
 11
15.578923
 21
28.037494
 31
0.0
  0
LINE
  8
0
 10
14.707209
 20
26.763263
 30
0.0
 11
15.125018
 21
29.220367
 31
0.0
  0
LINE
  8
0
 10
14.707209
 20
26.763263
 30
0.0
 11
14.179203
 21
28.038426
 31
0.0
  0
LINE
  8
0
 10
14.179203
 20
28.038426
 30
0.0
 11
8.097878
 21
28.042475
 31
0.0
  0
LINE
  8
0
 10
22.995744
 20
28.032555
 30
0.0
 11
15.578923
 21
28.037494
 31
0.0
  0
POLYLINE
  8
0
 66
     1
 10
0.0
 20
0.0
 30
0.0
 40
0.05
 41
0.05
  0
VERTEX
  8
0
 10
35.459548
 20
13.930056
 30
0.0
 50
71.0
  0
VERTEX
  8
0
 10
13.695211
 20
13.930056
 30
0.0
  0
VERTEX
  8
0
 10
13.695211
 20
28.038748
 30
0.0
  0
SEQEND
  8
0
  0
LINE
  8
WOOD
 10
12.533788
 20
12.980549
 30
0.0
 11
14.031726
 21
12.980549
 31
0.0
  0
LINE
  8
WOOD
 10
12.533788
 20
12.980549
 30
0.0
 11
12.533788
 21
7.039521
 31
0.0
  0
LINE
  8
WOOD
 10
14.031726
 20
12.980549
 30
0.0
 11
14.031726
 21
7.038524
 31
0.0
  0
LINE
  8
WOOD
 10
13.646541
 20
7.037698
 30
0.0
 11
12.533788
 21
12.980549
 31
0.0
  0
LINE
  8
WOOD
 10
12.920291
 20
7.039264
 30
0.0
 11
14.031726
 21
12.980549
 31
0.0
  0
LINE
  8
WOOD
 10
13.569404
 20
13.114866
 30
0.0
 11
36.351887
 21
13.114866
 31
0.0
  0
LINE
  8
WOOD
 10
13.507711
 20
13.114866
 30
0.0
 11
13.507711
 21
28.038873
 31
0.0
  0
LINE
  8
WOOD
 10
13.195211
 20
13.114866
 30
0.0
 11
13.195211
 21
28.039081
 31
0.0
  0
LINE
  8
WOOD
 10
12.882711
 20
13.114866
 30
0.0
 11
12.882711
 21
28.039289
 31
0.0
  0
LINE
  8
CLIP
 10
14.164605
 20
21.500321
 30
0.0
 11
14.164497
 21
21.446004
 31
0.0
  0
LINE
  8
CLIP
  6
DASHED
 10
14.140605
 20
21.793387
 30
0.0
 11
15.168191
 21
21.793387
 31
0.0
  0
LINE
  8
CLIP
  6
DASHED
 10
14.140605
 20
19.293387
 30
0.0
 11
15.168191
 21
19.293387
 31
0.0
  0
LINE
  8
CLIP
  6
DASHED
 10
15.168191
 20
19.293387
 30
0.0
 11
15.168191
 21
21.793387
 31
0.0
  0
LINE
  8
CLIP
 10
14.140605
 20
21.793387
 30
0.0
 11
14.140605
 21
19.293387
 31
0.0
  0
LINE
  8
CLIP
 10
14.164605
 20
21.793387
 30
0.0
 11
14.164605
 21
19.293387
 31
0.0
  0
LINE
  8
PANEL
 10
14.299886
 20
27.74697
 30
0.0
 11
14.288856
 21
16.088778
 31
0.0
  0
LINE
  8
FLASH
 10
13.894917
 20
15.775453
 30
0.0
 11
13.894917
 21
19.650453
 31
0.0
  0
LINE
  8
FLASH
 10
15.519917
 20
15.775453
 30
0.0
 11
13.894917
 21
15.775453
 31
0.0
  0
LINE
  8
DIM
 10
20.944375
 20
19.54488
 30
0.0
 11
21.552733
 21
19.54488
 31
0.0
  0
LINE
  8
DIM
 10
17.355063
 20
15.131404
 30
0.0
 11
20.944375
 21
19.54488
 31
0.0
  0
LINE
  8
DIM
 10
14.382625
 20
14.79432
 30
0.0
 11
17.355063
 21
15.131404
 31
0.0
  0
SOLID
  8
DIM
 10
14.38732
 20
14.752919
 30
0.0
 11
14.37793
 21
14.835722
 31
0.0
 12
14.134218
 22
14.76615
 32
0.0
 13
14.134218
 23
14.76615
 33
0.0
  0
LINE
  8
0
 10
22.995744
 20
7.032555
 30
0.0
 11
15.599018
 21
7.03748
 31
0.0
  0
LINE
  8
0
 10
14.199102
 20
7.038412
 30
0.0
 11
8.097878
 21
7.042475
 31
0.0
  0
LINE
  8
0
 10
14.729777
 20
5.756804
 30
0.0
 11
14.199102
 21
7.038412
 31
0.0
  0
LINE
  8
0
 10
14.729777
 20
5.756804
 30
0.0
 11
15.147586
 21
8.213909
 31
0.0
  0
LINE
  8
0
 10
15.147586
 20
8.213909
 30
0.0
 11
15.599018
 21
7.03748
 31
0.0
  0
LINE
  8
DIM
 10
24.804466
 20
11.942375
 30
0.0
 11
25.409775
 21
11.942375
 31
0.0
  0
LINE
  8
0
 10
37.602528
 20
14.467116
 30
0.0
 11
36.351887
 21
14.985943
 31
0.0
  0
LINE
  8
0
 10
36.351887
 20
14.985943
 30
0.0
 11
36.351887
 21
18.298989
 31
0.0
  0
LINE
  8
0
 10
35.145146
 20
14.050942
 30
0.0
 11
36.351887
 21
13.586956
 31
0.0
  0
LINE
  8
0
 10
37.602528
 20
14.467116
 30
0.0
 11
35.145146
 21
14.050942
 31
0.0
  0
LINE
  8
0
 10
36.351887
 20
9.133187
 30
0.0
 11
36.351887
 21
13.586956
 31
0.0
  0
LINE
  8
DIM
 10
23.783526
 20
10.499821
 30
0.0
 11
24.489988
 21
10.499821
 31
0.0
  0
ARC
  8
FLASH
 10
15.519917
 20
15.712953
 30
0.0
 40
0.0625
 50
270.0
 51
90.0
  0
LINE
  8
FLASH
 10
15.519917
 20
15.650453
 30
0.0
 11
15.082417
 21
15.650453
 31
0.0
  0
LINE
  8
FLASH
 10
13.967396
 20
15.711279
 30
0.0
 11
15.439754
 21
15.711279
 31
0.0
  0
LINE
  8
FLASH
 10
13.967396
 20
14.086279
 30
0.0
 11
13.967396
 21
15.711279
 31
0.0
  0
LINE
  8
FLASH
 10
16.842396
 20
14.086279
 30
0.0
 11
13.967396
 21
14.086279
 31
0.0
  0
LINE
  8
WOOD
 10
14.438168
 20
6.461054
 30
0.0
 11
15.657769
 21
12.980549
 31
0.0
  0
LINE
  8
WOOD
 10
14.159831
 20
12.980549
 30
0.0
 11
14.159831
 21
7.038439
 31
0.0
  0
LINE
  8
WOOD
 10
15.102259
 20
7.947345
 30
0.0
 11
14.159831
 21
12.980549
 31
0.0
  0
LINE
  8
WOOD
 10
15.657769
 20
12.980549
 30
0.0
 11
15.657769
 21
7.037441
 31
0.0
  0
LINE
  8
WOOD
 10
14.159831
 20
12.980549
 30
0.0
 11
15.657769
 21
12.980549
 31
0.0
  0
LINE
  8
WOOD
 10
13.569404
 20
13.739866
 30
0.0
 11
13.569404
 21
13.114866
 31
0.0
  0
TEXT
  8
DIM
 10
25.504099
 20
11.761661
 30
0.0
 40
0.375
  1
30# ROOFING FELT
 50
0.0
  7
ROMAND
  0
LINE
  8
PANEL
 10
14.13055
 20
15.711279
 30
0.0
 11
14.13055
 21
14.245222
 31
0.0
  0
LINE
  8
WOOD
 10
12.882711
 20
13.114866
 30
0.0
 11
13.507711
 21
13.114866
 31
0.0
  0
LINE
  8
WOOD
 10
13.569404
 20
13.427366
 30
0.0
 11
36.351887
 21
13.427366
 31
0.0
  0
LINE
  8
WOOD
 10
13.569404
 20
13.739866
 30
0.0
 11
35.954198
 21
13.739866
 31
0.0
  0
TEXT
  8
DIM
 10
24.647539
 20
10.310964
 30
0.0
 40
0.375
  1
PLYWOOD DECKING
  7
ROMAND
  0
TEXT
  8
DIM
 10
19.050675
 20
24.88451
 30
0.0
 40
0.375
  1
W/FASTENERS
  7
ROMAND
  0
TEXT
  8
DIM
 10
21.277384
 20
21.451898
 30
0.0
 40
0.375
  1
W/ "J" CLOSURE
  7
ROMAND
  0
LINE
  8
PANEL
 10
20.958008
 20
14.169566
 30
0.0
 11
14.13055
 21
14.245222
 31
0.0
  0
LINE
  8
0
 10
15.234213
 20
14.086279
 30
0.0
 11
15.234213
 21
14.232992
 31
0.0
  0
LINE
  8
0
 10
15.734213
 20
14.086279
 30
0.0
 11
15.734213
 21
14.227451
 31
0.0
  0
SOLID
  8
0
 10
15.234213
 20
14.086279
 30
0.0
 11
15.734213
 21
14.086279
 31
0.0
 12
15.234213
 22
14.232992
 32
0.0
 13
15.734213
 23
14.227451
 33
0.0
  0
SOLID
  8
DIM
 10
15.545501
 20
13.796296
 30
0.0
 11
15.626245
 21
13.816906
 31
0.0
 12
15.524042
 22
14.048834
 32
0.0
 13
15.524042
 23
14.048834
 33
0.0
  0
LINE
  8
DIM
 10
15.585873
 20
13.806601
 30
0.0
 11
16.682014
 21
9.512287
 31
0.0
  0
LINE
  8
DIM
 10
16.682014
 20
9.512287
 30
0.0
 11
17.192307
 21
9.512287
 31
0.0
  0
TEXT
  8
DIM
 10
17.442307
 20
9.324787
 30
0.0
 40
0.375
  1
SEALANT
  7
ROMAND
  0
LINE
  8
CLIP
 10
13.63778
 20
17.72937
 30
0.0
 11
13.581622
 21
17.728878
 31
0.0
  0
LINE
  8
CLIP
 10
13.710889
 20
17.838016
 30
0.0
 11
13.654732
 21
17.837523
 31
0.0
  0
LINE
  8
CLIP
 10
13.654732
 20
17.837523
 30
0.0
 11
13.689618
 21
17.729825
 31
0.0
  0
LINE
  8
CLIP
 10
13.63778
 20
17.72937
 30
0.0
 11
13.602894
 21
17.837068
 31
0.0
  0
LINE
  8
CLIP
 10
13.347469
 20
17.702806
 30
0.0
 11
13.365631
 21
17.726982
 31
0.0
  0
LINE
  8
CLIP
 10
13.097801
 20
17.724632
 30
0.0
 11
13.06529
 21
17.824997
 31
0.0
  0
LINE
  8
CLIP
 10
12.915546
 20
17.777034
 30
0.0
 11
13.06529
 21
17.824997
 31
0.0
  0
LINE
  8
CLIP
 10
13.257635
 20
17.726034
 30
0.0
 11
13.222748
 21
17.833732
 31
0.0
  0
LINE
  8
CLIP
 10
13.205797
 20
17.725579
 30
0.0
 11
13.17091
 21
17.833277
 31
0.0
  0
LINE
  8
CLIP
 10
13.313793
 20
17.726527
 30
0.0
 11
13.278906
 21
17.834225
 31
0.0
  0
LINE
  8
CLIP
 10
13.149639
 20
17.725087
 30
0.0
 11
13.114752
 21
17.832785
 31
0.0
  0
LINE
  8
CLIP
 10
13.421789
 20
17.727475
 30
0.0
 11
13.365631
 21
17.726982
 31
0.0
  0
LINE
  8
CLIP
 10
13.529784
 20
17.728423
 30
0.0
 11
13.563461
 21
17.704702
 31
0.0
  0
LINE
  8
CLIP
 10
13.563461
 20
17.704702
 30
0.0
 11
13.581622
 21
17.728878
 31
0.0
  0
LINE
  8
CLIP
 10
13.405684
 20
17.857431
 30
0.0
 11
13.43874
 21
17.835628
 31
0.0
  0
LINE
  8
CLIP
 10
13.386902
 20
17.835173
 30
0.0
 11
13.405684
 21
17.857431
 31
0.0
  0
LINE
  8
CLIP
 10
13.421789
 20
17.727475
 30
0.0
 11
13.455465
 21
17.703754
 31
0.0
  0
LINE
  8
CLIP
 10
13.455465
 20
17.703754
 30
0.0
 11
13.473627
 21
17.72793
 31
0.0
  0
LINE
  8
CLIP
 10
13.529784
 20
17.728423
 30
0.0
 11
13.473627
 21
17.72793
 31
0.0
  0
LINE
  8
CLIP
 10
13.494898
 20
17.836121
 30
0.0
 11
13.43874
 21
17.835628
 31
0.0
  0
LINE
  8
CLIP
 10
13.529784
 20
17.728423
 30
0.0
 11
13.494898
 21
17.836121
 31
0.0
  0
LINE
  8
CLIP
 10
13.473627
 20
17.72793
 30
0.0
 11
13.43874
 21
17.835628
 31
0.0
  0
LINE
  8
CLIP
 10
13.421789
 20
17.727475
 30
0.0
 11
13.386902
 21
17.835173
 31
0.0
  0
LINE
  8
CLIP
 10
13.621676
 20
17.859327
 30
0.0
 11
13.654732
 21
17.837523
 31
0.0
  0
LINE
  8
CLIP
 10
13.602894
 20
17.837068
 30
0.0
 11
13.621676
 21
17.859327
 31
0.0
  0
LINE
  8
CLIP
 10
13.51368
 20
17.858379
 30
0.0
 11
13.546736
 21
17.836576
 31
0.0
  0
LINE
  8
CLIP
 10
13.602894
 20
17.837068
 30
0.0
 11
13.546736
 21
17.836576
 31
0.0
  0
LINE
  8
CLIP
 10
13.494898
 20
17.836121
 30
0.0
 11
13.51368
 21
17.858379
 31
0.0
  0
LINE
  8
CLIP
 10
13.581622
 20
17.728878
 30
0.0
 11
13.546736
 21
17.836576
 31
0.0
  0
LINE
  8
CLIP
 10
13.278906
 20
17.834225
 30
0.0
 11
13.222748
 21
17.833732
 31
0.0
  0
LINE
  8
CLIP
 10
13.189693
 20
17.855536
 30
0.0
 11
13.222748
 21
17.833732
 31
0.0
  0
LINE
  8
CLIP
 10
13.17091
 20
17.833277
 30
0.0
 11
13.189693
 21
17.855536
 31
0.0
  0
LINE
  8
CLIP
 10
13.17091
 20
17.833277
 30
0.0
 11
13.114752
 21
17.832785
 31
0.0
  0
LINE
  8
CLIP
 10
13.297689
 20
17.856484
 30
0.0
 11
13.330744
 21
17.83468
 31
0.0
  0
LINE
  8
CLIP
 10
13.278906
 20
17.834225
 30
0.0
 11
13.297689
 21
17.856484
 31
0.0
  0
LINE
  8
CLIP
 10
13.081697
 20
17.854588
 30
0.0
 11
13.114752
 21
17.832785
 31
0.0
  0
LINE
  8
CLIP
 10
13.06529
 20
17.824997
 30
0.0
 11
13.081697
 21
17.854588
 31
0.0
  0
LINE
  8
CLIP
 10
13.365631
 20
17.726982
 30
0.0
 11
13.330744
 21
17.83468
 31
0.0
  0
LINE
  8
CLIP
 10
13.386902
 20
17.835173
 30
0.0
 11
13.330744
 21
17.83468
 31
0.0
  0
LINE
  8
CLIP
 10
12.915546
 20
17.777034
 30
0.0
 11
13.08922
 21
17.724556
 31
0.0
  0
LINE
  8
CLIP
 10
13.205797
 20
17.725579
 30
0.0
 11
13.239474
 21
17.701858
 31
0.0
  0
LINE
  8
CLIP
 10
13.205797
 20
17.725579
 30
0.0
 11
13.149639
 21
17.725087
 31
0.0
  0
LINE
  8
CLIP
 10
13.239474
 20
17.701858
 30
0.0
 11
13.257635
 21
17.726034
 31
0.0
  0
LINE
  8
CLIP
 10
13.313793
 20
17.726527
 30
0.0
 11
13.257635
 21
17.726034
 31
0.0
  0
LINE
  8
CLIP
 10
13.097801
 20
17.724632
 30
0.0
 11
13.08922
 21
17.724556
 31
0.0
  0
LINE
  8
CLIP
 10
13.131478
 20
17.700911
 30
0.0
 11
13.149639
 21
17.725087
 31
0.0
  0
LINE
  8
CLIP
 10
13.097801
 20
17.724632
 30
0.0
 11
13.131478
 21
17.700911
 31
0.0
  0
LINE
  8
CLIP
 10
13.313793
 20
17.726527
 30
0.0
 11
13.347469
 21
17.702806
 31
0.0
  0
LINE
  8
CLIP
 10
13.745776
 20
17.730318
 30
0.0
 11
13.779453
 21
17.706597
 31
0.0
  0
LINE
  8
CLIP
 10
13.779453
 20
17.706597
 30
0.0
 11
13.797614
 21
17.730773
 31
0.0
  0
LINE
  8
CLIP
 10
13.745776
 20
17.730318
 30
0.0
 11
13.689618
 21
17.729825
 31
0.0
  0
LINE
  8
CLIP
 10
13.63778
 20
17.72937
 30
0.0
 11
13.671457
 21
17.705649
 31
0.0
  0
LINE
  8
CLIP
 10
13.671457
 20
17.705649
 30
0.0
 11
13.689618
 21
17.729825
 31
0.0
  0
LINE
  8
CLIP
 10
13.894917
 20
17.622879
 30
0.0
 11
13.943566
 21
17.623306
 31
0.0
  0
LINE
  8
CLIP
 10
13.710889
 20
17.838016
 30
0.0
 11
13.729672
 21
17.860275
 31
0.0
  0
LINE
  8
CLIP
 10
13.729672
 20
17.860275
 30
0.0
 11
13.762727
 21
17.838471
 31
0.0
  0
LINE
  8
CLIP
 10
13.892067
 20
17.94761
 30
0.0
 11
13.940716
 21
17.948037
 31
0.0
  0
LINE
  8
CLIP
 10
13.893015
 20
17.839615
 30
0.0
 11
13.762727
 21
17.838471
 31
0.0
  0
LINE
  8
CLIP
 10
13.892067
 20
17.94761
 30
0.0
 11
13.894917
 21
17.622879
 31
0.0
  0
ARC
  8
CLIP
 10
13.502868
 20
17.781817
 30
0.0
 40
0.468338
 50
340.21731
 51
20.788306
  0
LINE
  8
CLIP
 10
13.762727
 20
17.838471
 30
0.0
 11
13.797614
 21
17.730773
 31
0.0
  0
LINE
  8
CLIP
 10
13.710889
 20
17.838016
 30
0.0
 11
13.745776
 21
17.730318
 31
0.0
  0
LINE
  8
CLIP
 10
13.893963
 20
17.731619
 30
0.0
 11
13.797614
 21
17.730773
 31
0.0
  0
LINE
  8
CLIP
 10
16.063286
 20
13.620777
 30
0.0
 11
16.170984
 21
13.58589
 31
0.0
  0
LINE
  8
CLIP
 10
16.193242
 20
13.604673
 30
0.0
 11
16.171439
 21
13.637728
 31
0.0
  0
LINE
  8
CLIP
 10
16.063286
 20
13.620777
 30
0.0
 11
16.062793
 21
13.564619
 31
0.0
  0
LINE
  8
CLIP
 10
16.112845
 20
13.114535
 30
0.0
 11
16.060367
 21
13.288209
 31
0.0
  0
LINE
  8
CLIP
 10
16.112845
 20
13.114535
 30
0.0
 11
16.160808
 21
13.264278
 31
0.0
  0
LINE
  8
CLIP
 10
16.062338
 20
13.512781
 30
0.0
 11
16.038617
 21
13.546458
 31
0.0
  0
LINE
  8
CLIP
 10
16.060443
 20
13.29679
 30
0.0
 11
16.036722
 21
13.330466
 31
0.0
  0
LINE
  8
CLIP
 10
16.036722
 20
13.330466
 30
0.0
 11
16.060898
 21
13.348628
 31
0.0
  0
LINE
  8
CLIP
 10
16.060443
 20
13.29679
 30
0.0
 11
16.060367
 21
13.288209
 31
0.0
  0
LINE
  8
CLIP
 10
16.062338
 20
13.512781
 30
0.0
 11
16.061845
 21
13.456624
 31
0.0
  0
LINE
  8
CLIP
 10
16.037669
 20
13.438462
 30
0.0
 11
16.061845
 21
13.456624
 31
0.0
  0
LINE
  8
CLIP
 10
16.06139
 20
13.404786
 30
0.0
 11
16.060898
 21
13.348628
 31
0.0
  0
LINE
  8
CLIP
 10
16.06139
 20
13.404786
 30
0.0
 11
16.037669
 21
13.438462
 31
0.0
  0
LINE
  8
CLIP
 10
16.170984
 20
13.58589
 30
0.0
 11
16.170491
 21
13.529733
 31
0.0
  0
LINE
  8
CLIP
 10
16.062793
 20
13.564619
 30
0.0
 11
16.170491
 21
13.529733
 31
0.0
  0
LINE
  8
CLIP
 10
16.160808
 20
13.264278
 30
0.0
 11
16.190399
 21
13.280685
 31
0.0
  0
LINE
  8
CLIP
 10
16.190399
 20
13.280685
 30
0.0
 11
16.168596
 21
13.313741
 31
0.0
  0
LINE
  8
CLIP
 10
16.170036
 20
13.477895
 30
0.0
 11
16.192295
 21
13.496677
 31
0.0
  0
LINE
  8
CLIP
 10
16.192295
 20
13.496677
 30
0.0
 11
16.170491
 21
13.529733
 31
0.0
  0
LINE
  8
CLIP
 10
16.169088
 20
13.369899
 30
0.0
 11
16.168596
 21
13.313741
 31
0.0
  0
LINE
  8
CLIP
 10
16.169088
 20
13.369899
 30
0.0
 11
16.191347
 21
13.388681
 31
0.0
  0
LINE
  8
CLIP
 10
16.191347
 20
13.388681
 30
0.0
 11
16.169543
 21
13.421737
 31
0.0
  0
LINE
  8
CLIP
 10
16.170036
 20
13.477895
 30
0.0
 11
16.169543
 21
13.421737
 31
0.0
  0
LINE
  8
CLIP
 10
16.170984
 20
13.58589
 30
0.0
 11
16.193242
 21
13.604673
 31
0.0
  0
LINE
  8
CLIP
 10
16.060898
 20
13.348628
 30
0.0
 11
16.168596
 21
13.313741
 31
0.0
  0
LINE
  8
CLIP
 10
16.062338
 20
13.512781
 30
0.0
 11
16.170036
 21
13.477895
 31
0.0
  0
LINE
  8
CLIP
 10
16.06139
 20
13.404786
 30
0.0
 11
16.169088
 21
13.369899
 31
0.0
  0
LINE
  8
CLIP
 10
16.061845
 20
13.456624
 30
0.0
 11
16.169543
 21
13.421737
 31
0.0
  0
LINE
  8
CLIP
 10
16.060443
 20
13.29679
 30
0.0
 11
16.160808
 21
13.264278
 31
0.0
  0
LINE
  8
CLIP
 10
16.038617
 20
13.546458
 30
0.0
 11
16.062793
 21
13.564619
 31
0.0
  0
ARC
  8
CLIP
 10
16.117628
 20
13.701856
 30
0.0
 40
0.468338
 50
69.211694
 51
109.78269
  0
LINE
  8
CLIP
 10
16.283421
 20
14.091056
 30
0.0
 11
15.95869
 21
14.093906
 31
0.0
  0
LINE
  8
CLIP
 10
15.95869
 20
14.093906
 30
0.0
 11
15.959117
 21
14.142554
 31
0.0
  0
LINE
  8
CLIP
 10
16.06743
 20
14.092951
 30
0.0
 11
16.066584
 21
13.996603
 31
0.0
  0
LINE
  8
CLIP
 10
16.175426
 20
14.092003
 30
0.0
 11
16.174282
 21
13.961716
 31
0.0
  0
LINE
  8
CLIP
 10
16.173827
 20
13.909878
 30
0.0
 11
16.066129
 21
13.944765
 31
0.0
  0
LINE
  8
CLIP
 10
16.174282
 20
13.961716
 30
0.0
 11
16.066584
 21
13.996603
 31
0.0
  0
LINE
  8
CLIP
 10
16.196086
 20
13.92866
 30
0.0
 11
16.174282
 21
13.961716
 31
0.0
  0
LINE
  8
CLIP
 10
16.173827
 20
13.909878
 30
0.0
 11
16.196086
 21
13.92866
 31
0.0
  0
LINE
  8
CLIP
 10
16.04146
 20
13.870446
 30
0.0
 11
16.065636
 21
13.888607
 31
0.0
  0
LINE
  8
CLIP
 10
16.065181
 20
13.836769
 30
0.0
 11
16.04146
 21
13.870446
 31
0.0
  0
LINE
  8
CLIP
 10
16.066129
 20
13.944765
 30
0.0
 11
16.065636
 21
13.888607
 31
0.0
  0
LINE
  8
CLIP
 10
16.042408
 20
13.978441
 30
0.0
 11
16.066584
 21
13.996603
 31
0.0
  0
LINE
  8
CLIP
 10
16.066129
 20
13.944765
 30
0.0
 11
16.042408
 21
13.978441
 31
0.0
  0
LINE
  8
CLIP
 10
16.064689
 20
13.780611
 30
0.0
 11
16.172387
 21
13.745724
 31
0.0
  0
LINE
  8
CLIP
 10
16.171932
 20
13.693886
 30
0.0
 11
16.19419
 21
13.712669
 31
0.0
  0
LINE
  8
CLIP
 10
16.172879
 20
13.801882
 30
0.0
 11
16.172387
 21
13.745724
 31
0.0
  0
LINE
  8
CLIP
 10
16.19419
 20
13.712669
 30
0.0
 11
16.172387
 21
13.745724
 31
0.0
  0
LINE
  8
CLIP
 10
16.172879
 20
13.801882
 30
0.0
 11
16.195138
 21
13.820665
 31
0.0
  0
LINE
  8
CLIP
 10
16.195138
 20
13.820665
 30
0.0
 11
16.173334
 21
13.85372
 31
0.0
  0
LINE
  8
CLIP
 10
16.063741
 20
13.672615
 30
0.0
 11
16.171439
 21
13.637728
 31
0.0
  0
LINE
  8
CLIP
 10
16.064234
 20
13.728773
 30
0.0
 11
16.171932
 21
13.693886
 31
0.0
  0
LINE
  8
CLIP
 10
16.171932
 20
13.693886
 30
0.0
 11
16.171439
 21
13.637728
 31
0.0
  0
LINE
  8
CLIP
 10
16.064234
 20
13.728773
 30
0.0
 11
16.063741
 21
13.672615
 31
0.0
  0
LINE
  8
CLIP
 10
16.039565
 20
13.654454
 30
0.0
 11
16.063741
 21
13.672615
 31
0.0
  0
LINE
  8
CLIP
 10
16.063286
 20
13.620777
 30
0.0
 11
16.039565
 21
13.654454
 31
0.0
  0
LINE
  8
CLIP
 10
16.040513
 20
13.76245
 30
0.0
 11
16.064689
 21
13.780611
 31
0.0
  0
LINE
  8
CLIP
 10
16.064234
 20
13.728773
 30
0.0
 11
16.040513
 21
13.76245
 31
0.0
  0
LINE
  8
CLIP
 10
16.065181
 20
13.836769
 30
0.0
 11
16.172879
 21
13.801882
 31
0.0
  0
LINE
  8
CLIP
 10
16.173334
 20
13.85372
 30
0.0
 11
16.065636
 21
13.888607
 31
0.0
  0
LINE
  8
CLIP
 10
16.173827
 20
13.909878
 30
0.0
 11
16.173334
 21
13.85372
 31
0.0
  0
LINE
  8
CLIP
 10
16.065181
 20
13.836769
 30
0.0
 11
16.064689
 21
13.780611
 31
0.0
  0
LINE
  8
CLIP
 10
16.283421
 20
14.091056
 30
0.0
 11
16.283848
 21
14.139705
 31
0.0
  0
TEXT
  8
DIM
 10
21.713142
 20
19.694243
 30
0.0
 40
0.375
  1
FIELD-FORM PANEL LEG TO
  7
ROMAND
  0
TEXT
  8
DIM
 10
21.713142
 20
19.0871
 30
0.0
 40
0.375
  1
I.D. OF "J" CLOSURE
  7
ROMAND
  0
ENDSEC
  0
EOF
